» » »

New Found Glory - Dont Let Her Pull You Down Bass

Artists:  A B C D E F G H I J K L M N O P Q R S T U V W X Y Z # 

Dont Let Her Pull You Down Bass

(ver. 1) Click to play this song!
New Found Glory
 Rating:
4/5 (4 votes)

 Dont Let Her Pull You Down lessons Tabs too difficult? Try these video lessons and learn fast
 
                New Found Glory

Don't Let Her Pull You Down

Intro/Chorus:
--------------------------------------------------------|
--------------------------------------------------------|
--------------------------------------------------------|
-0-0-0-0-----0-0-0-0-----0-0-0-0-----0-0-0-0-0-0-0-0-0—-|

--------------------------------------------------------|
--------------------------------------------------------|
--------------------------------------------------------|   x2
-5-5-5-5-----5-5-5-5-----5-5-5-5-----5-5-5-5-5-5-5-5-5--|

Verse:
------------------------------------|
------------------------------------|
------------------------------------|
-0--x-x---x0--x-x---x0--x-x---x0--4-|

------------------------------------|
------------------------------------|
------------------------------------|   x2
5--x-x---x5---x-x---x5--x-x---x5--7-|

Pre-Chorus:
-----------------------------------------------------------------|
-----------------------------------------------------------------|
-4-4-4-4-4-4-4-4-------------------------------------------------|   x4
-----------------7-7-7-7-7-7-7-7-5-5-5-5-5-5-5-5-5-5-5-5-5-5-5-5-|

Bridge:
-----------------------------------------------------------------|
-----------------------------------------------------------------|
-4-4-4-4-4-4-4-4-6-6-6-6-6-6-6-6-7-7-7-7-7-7-7-7-7-7-7-7-7-7-7-7-|   x4
-----------------------------------------------------------------|
            
Submit corrections


        Dont Let Her Pull You Down lessons Hard to play? Try these video lessons and learn fast Dont Let Her Pull You Down lessons
        
↑ Back to top | Tablatures and chords for acoustic guitar and electric guitar, ukulele, drums are parodies/interpretations of the original songs. You may use it for private study, scholarship, research or language learning purposes only