Home » N » Neil Diamond »

Neil Diamond - Sweet Caroline Ukulele

Artists:  A B C D E F G H I J K L M N O P Q R S T U V W X Y Z # 

Sweet Caroline Ukulele

(ver. 1) Click to play this song!
Neil Diamond
A|-------------------------|-------------------------|
E|-----0-1---------------0-|-1---0-------1---0-------|
C|-2-----------------2-----|-------2-----------2-----|
G|-------------------------|-------------------------|


A|-------0-----------------|-0-----------0-----------|
E|-1---3-------------1---3-|-----3-1---------3-1-----|
C|-------------------------|-------------------------|
G|-------------------------|-------------------------|


A|-0---2-3-----------0---2-|-3-----------2-----------|-7-----------5-----------|
E|-------------------------|-------------------------|-------------------------|
C|-------------------------|-------------------------|-------------------------|
G|-------------------------|-------------------------|-------------------------|            
Submit corrections

↑ Back to top | Tablatures and chords for acoustic guitar and electric guitar, ukulele, drums are parodies/interpretations of the original songs. You may use it for private study, scholarship, research or language learning purposes only