Home » N » Neil Diamond »

Neil Diamond - Sweet Caroline Ukulele

Artists:  A B C D E F G H I J K L M N O P Q R S T U V W X Y Z # 

Sweet Caroline Ukulele

(ver. 2) Click to play this song!
Neil Diamond
[Riff]
  F/A A5  F
|-8---7---0-------|
|-5---5---1-------|
|---------0-------|
|---------2-------|

[Intro]
G
A----------------------------------------------------
E---0-1-----0-1-0----1-0----1-3-5---1-3-5-3-1--5-3-1-
C-2-------2-------2------2--2-4-5---2-4-5-4-2--5-4-2-
G----------------------------------------------------

G
A-----2-3-----2-3---2--7----5-------|-
E---5-3-5---5-3-5---3--8----7-------|-
C---5-------5-----------------------|-
G-----------------------------------|-


[Verse]
C
Where it began I can't begin to knowin'
C                            G
But then I know it's growing strong
C                 F
Was it the spring and spring became the summer
C                              G         C
Who'd have believed you'd come along


[Bridge]
C      F
Hands, touchin' hands
G                        F           G
Reachin' out, dear lord. touchin' me touchin' you


[Chorus]
C     F           F/A  A5  F
Sweet Caroline      (Riff)
      G
Good times never seemed so good
C            F        F/A  A5  F
I've been in-clined     (Riff)
F                     G          F   Em7   Dm              
To believe they never would....  but now   I...


[Verse]
C                 F
Look at the night and it don't seem so lonely
C                       G
We fill it up with only two
C                F
And when I hurt, hurtin' runs off my shoulders
C                               G
How can I hurt when I'm holdin' you


[Bridge]
C     F
Warm, touchin' warm
G                 F           G
Reachin' out now, touchin' me touchin' you


[Chorus]
C     F           F/A  A5  F
Sweet Caroline      (Riff)
      G
Good times never seemed so good
C            F        F/A  A5  F
I've been in-clined     (Riff)
F                     G         F     Em7   Dm        
To believe they never would ... no,   no,   no


[Instrumental]

G
A-----------------------------------------------------
E----0-1-----0-1-0----1-0----1-3-5---1-3-5-3-1--5-3-1-
C--2-------2-------2------2--2-4-5---2-4-5-4-2--5-4-2-
G-----------------------------------------------------

G
A------2-3-----2-3---2--7----5-------|
E----5-3-5---5-3-5---3--8----7-------|
C----5-------5-----------------------|
G------------------------------------|


[Chorus] x3
C
Yeahhhhhh
C     F         F/A A5  F
Sweet Caroline   [Riff]
F                          G
Good times never seemed so good
C            F        F/A A5  F
I've been in-clined    [Riff]
F                     G
To believe they never would

[Outro]
F  Em7  Dm
Oh no   no
N.C.        C               C
Sweet Car-o-line             
Submit corrections

↑ Back to top | Tablatures and chords for acoustic guitar and electric guitar, ukulele, drums are parodies/interpretations of the original songs. You may use it for private study, scholarship, research or language learning purposes only