» » »

Neil Diamond - Sweet Caroline Bass

Artists:  A B C D E F G H I J K L M N O P Q R S T U V W X Y Z # 

Sweet Caroline Bass

(ver. 1) Click to play this song!
Neil Diamond
 Rating:
4.3/5 (21 vote)

 Sweet Caroline lessons Tabs too difficult? Try these video lessons and learn fast
 
                Intro:                                         .  . .  .
G|-------------------------------------------------------|
D|---------------------------------------------4----4----|
A|-------------------------------------------------------|
E|-2-2-2-2-2-2-2-2---2-2-2-2-2-2-2-2---2-2-2-2----2----2-|

Verse:
G|------------------------------------------------------------------|
D|-------------------2-2-2---2---2------------------4-4-4-4-4-4-4---|
A|--2-2-2---2---2---2----------------2-2-2---2---2---------------4--|
E|-2--------------------------------2-----------------------------2-|

G|---------------------------------------------------------------|
D|------------------2-2-2---2---2----------------4-4-4-4-4-2-1---|
A|-2-2-2---2---2---2---------------2-2-2---2---2----------4---4--|
E|--------------------------------2----------------------------2-|

Pre-Chorus 1:
G|---4---4---4---4---4---4---4---4-----------------------------------|
D|---------------------------------4-4-4-4-4-4-4-4---2-2-2-2-2-2-2-2-|
A|-2---2---2---2---2---2---2---2-------------------------------------|
E|-------------------------------------------------------------------|

G|----------------|
D|-4-4-4-4--------|
A|--------------1-|
E|---------2-2-4--|

Chorus 1:
G|----------------------------------------------------|
D|-------1-2---2---22---2---22---2---44---4---4-4-2-4-|
A|-2--2-4---2---2----2---2----2---2----4---4----------|
E|--2-------------------------------------------------|

G|------------------------------------------------|
D|--------22---2---22---2---22---2---4---2---1----|
A|-2---2----2---2----2---2----2---2-------------4-|
E|--2---2-----------------------------------------|

Repeat Verse:

Pre-Chorus 2:
G|---4---4---4---4---4---4---4----------------------------------------|
D|--------------------------------------------------------------------|
A|-2---2---2---2---2---2---2---2--2/9-9-9-9-9-9-9-9---7-7-7-7-7-7-7-7-|
E|--------------------------------------------------------------------|

G|----------------|
D|-4-4-4-4--------|
A|--------------1-|
E|---------2-2-4--|

Chorus 2:
G|----------------------------------------------------|
D|--------22---2---22---2---22---2---44---4---4-4-2-4-|
A|-2---2----2---2----2---2----2---2----4---4----------|
E|--2---2---------------------------------------------|

G|-------------------------------------------------|
D|---------22---2---22---2---22---2---4---2---1----|
A|-2---2------2---2----2---2----2---2------------4-|
E|--2---2------------------------------------------|

Instrumental Interlude:
G|----------------------------------------------------------|
D|---------------------------------------------4----4-------|
A|--------------------------------------------------------1-|
E|-2-2-2-2-2-2-2-2---2-2-2-2-2-2-2-2---2-2-2-2----2----2-4--|

Chorus 3:
G|----------------------------------------------------|
D|--------22---2---22---2---22---2---44---4---4-4-2-4-|
A|-2---2----2---2----2---2----2---2----4---4----------|
E|--2---2---------------------------------------------|

G|--------------------------------------------------|
D|--------22---2---22---2---22---2---4-4-4-4-4------|
A|-2---2----2---2----2---2----2---2-----------4---1-|
E|--2---2--------------------------------------2-4--|            
Submit corrections


        Sweet Caroline lessons Hard to play? Try these video lessons and learn fast Sweet Caroline lessons
        
↑ Back to top | Tablatures and chords for acoustic guitar and electric guitar, ukulele, drums are parodies/interpretations of the original songs. You may use it for private study, scholarship, research or language learning purposes only