» » »

My Vitriol - Always Your Way Tabs

Artists:  A B C D E F G H I J K L M N O P Q R S T U V W X Y Z # 

Always Your Way Tabs

(ver. 3) Click to play this song!
My Vitriol
 Rating:
4/5 (4 votes)

 Always Your Way lessons Tabs too difficult? Try these video lessons and learn fast
 
                There are two guitarists in My Vitriol so this a bit of a mixture between the two, if you're the only guitarist playing this then I'd advise you play it this way. This is my first tab but i know that it's correct. Enjoy!

e|-----15----15-----15-----15------|
B|--13----13-----13-----13---------|
G|--14----14-----14-----14---------|
D|---------------------------------| x4
A|---------------------------------|
E|---------------------------------|

e|------------------------------------|
B|------------------------------------|
G|-8h9-9-11-11-11-11h13-13-13-8-8-8-8-|
D|------------------------------------|  x2
A|------------------------------------|
E|------------------------------------|

In the verse play the E and the A as a bar chord but in the chorus just play it normally.

E
another day has gone
Emaj 7
some other time maybe
A
i'll come out
     F#
i'll step into the sun
E
a little time ago
Emaj7
i didn't want to see
A
us falling out
    F#
but everything has gone


F#      A
i wish i could
   E               B                 
sometimes i wish i would
F#  A        E        
always your way
F#         A
you want it all
   E               B 
i did everything i could
F#  A        E
always your way

E
i'm talking to the walls
Emaj7
i guess it seems that all the
A
weight has gone
F#
like everything else now
E
and in my broken jar
Emaj7                        A
all the remains are watered down
F#                   B
and i'm starting to drown


F#      A
i wish i could
   E               B                 
sometimes i wish i would
F#  A        E       
always your way
F#         A
you want it all
   E               B 
i did everything i could
F#  A        E
always your way

intro

F#      A
i wish i could
   E               B                 
sometimes i wish i would
F#  A        E        
always your way
F#         A
you want it all
   E               B 
i did everything i could
F#  A        E
always your way

F#  A        E
always your way
F#  A        E
always your way
F#  A        E
always your way
F#  A        E
always your way

you can either carry on playing the chorus chords or play this


e|-------------------------------------|
B|-------------------------------------|
G|-14-14-13-13-13-13-14-14-13-13-13-13-|
D|-------------------------------------|
A|-------------------------------------|
E|-------------------------------------|

e|----------------------------------------|
B|----------------------------------------|
G|-14-14-13-13-13-13-16-16-16-14-13-13-13-|
D|----------------------------------------|
A|----------------------------------------|
E|----------------------------------------|

e|----------------------------------------------------|
B|----------------------------------------------------|
G|-14-14-13-13-13-13-13-13-13-13----------------------|
D|----------------------------------------------------|
A|----------------------------------------------------|
E|----------------------------------------------------|


e|-------------------------------------------------|
B|-------------------------------------------------|
G|-16-16-16-16-16-16-16-16-16-16-16-16-16-16-16-16-|
D|-------------------------------------------------|
A|-------------------------------------------------|
E|-------------------------------------------------|

e|--------------------------------------|
B|--------------------------------------|
G|-14-14-13-13-13-13-14-14-13-13-13-13--|
            
Submit corrections


        Always Your Way lessons Hard to play? Try these video lessons and learn fast Always Your Way lessons
        
↑ Back to top | Tablatures and chords for acoustic guitar and electric guitar, ukulele, drums are parodies/interpretations of the original songs. You may use it for private study, scholarship, research or language learning purposes only