Home » M » My Vitriol »

My Vitriol - Always Your Way Tabs

Artists:  A B C D E F G H I J K L M N O P Q R S T U V W X Y Z # 

Always Your Way Tabs

(ver. 2) Click to play this song!
My Vitriol
 Rating:
4/5 (4 votes)
                
Probably the best song by the best band to come out of Britain since the
 Manics. I haven't seen a tab for it so I did it myself.
 'Delusions of Grandeur EP' version is played with capo on first fret. In
 this case, tab is relative to capo.
 Standard tuning. 100% correct!!!

 Intro  Guitar 1
 E|-----------------------------------------|
 B|-9--9---9---9---9---9---9---9---9---9----|
 G|-----------------------------------------|
 D|--9---9---9---9---9---9---9---9---9---9--|
 A|-----------------------------------------|
 E|-----------------------------------------|

 Intro B
 E|-------------------------------------------------------------|
 B|--------8------------8-------------------8--------------8-------|
 G|-9h10p9---9-9-9-----9h10p9---9-9-9--9h10p9---9-9-9-9h10p9---9-9-9-|
 D|-------------------------------------------------------------|
 A|-------------------------------------------------------------|
 E|-------------------------------------------------------------|

 Both Guitars
 E|-------------------------------|
 B|-------------------------------|
 G|-10-10-10-10-10-10-109-9-9-9--|
 D|-x--x--x--x--x--x--x-x-x-x-x--|
 A|-8--8--8--8--8--8--8-7-7-7-7--|
 E|-------------------------------|

 Verse

 E5                          C#5
 Another day is gone,   some other time maybe

 F#5            A5               E5
 I come out, step into the sun

 This sequence is played twice; listen to the record for the rhythm. The
 Lead
 guitar plays a quiet wah-driven lick around the 9th and 10th frets on the

 and high E string. Easy enough to workout for yourself.

 Chorus

 F#5      A5         E5             B5
 I wish I could, sometimes I wish I would

 F#5 A5      E5
 Always your way

 Again this sequence is played twice.

 Soft bridge

 E|-------------11b12r11--|
 B|-10-9v-10-9v-----------|
 G|-----------------------|   x4
 D|-----------------------|
 A|-----------------------|
 E|-----------------------|

 Song Arrangement

 Intro x1
 Intro B x2
 Verse
 Chorus
 Verse
 Chorus
 Intro
 Intro B x2
 Chorus
 Soft bridge
 Chorus

 The tab might come out funny. If so paste it into Word and it'll be fine.
 Any comments, corrections, love letters or death threats go to
            
Submit corrections

↑ Back to top | Tablatures and chords for acoustic guitar and electric guitar, ukulele, drums are parodies/interpretations of the original songs. You may use it for private study, scholarship, research or language learning purposes only