Home » M » Mymp »

Mymp - Tell Me Where It Hurts Tabs

Artists:  A B C D E F G H I J K L M N O P Q R S T U V W X Y Z # 

Tell Me Where It Hurts Tabs

(ver. 3) Click to play this song!
Mymp
 Rating:
4/5 (4 votes)
                Song         : Tell me where it hurts
Artist       : MYMP
Album        : Behind Acoustics

Transcribe by: Walter Michael De la Cruz - SLU Baguio City - 09224012464


Legend:
s - slide


Ung strumming dito pkinggan u nlang sa song. mkukuha nyo din un.
Ung G at C9 Ung 3 string lng patunugin tpos strumming with tapping ung verse nya.
then Sa chorus plucking un habang ini strum.. Rock Out!!

Please RatE!!! 

Intro:

e|---------------------------------------------------10-----------|
B|---8s10-10-10-10-10-8-8s10-10s12-12---8s10-10-10-8----8-8s10----|
G|-7----------------------------------7-------------------------7-|
D|----------------------------------------------------------------|
A|----------------------------------------------------------------|
E|----------------------------------------------------------------|



Chords used:

       G                  Em5                C9             EbM7
 |-----X-----|        |----3-----|       |----X----|     |---6----|
 |-----3-----|        |----3-----|       |----3----|     |---8----|
 |-----2-----|        |----0-----|       |----0----|     |---7----|
 |-----X-----|        |----2-----|       |----X----|     |---8----|
 |-----X-----|        |----2-----|       |----3----|     |---6----|
 |-----3-----|        |----0-----|       |----X----|     |--------|


      CM9                  D5               
 |-----3-----|        |----5-----|       
 |-----3-----|        |----5-----|       
 |-----4-----|        |----5-----|       
 |-----5-----|        |----7-----|       
 |-----3-----|        |----5-----|       
 |-----------|        |----------|       


Verse 1

G
Why is that sad look in your eyes
Why are you crying?

C9
Tell me now, tell me now
Tell me, why you're feelin' this way

G
I hate to see you so down, oh baby!

C9           Em5
Is it your heart
Oh, that's breakin' all in pieces

C9          Em5
Makin' you cry

EbM7
Makin' you feel blue
Is there anything that I can do

CHORUS:
              G
Why don't you tell me where it hurts now, baby
         Em5
And I'll do my best to make it better
          CM9                     D5
Yes, I'll do my best to make the tears all go away
          G
Just tell me where it hurts
Now, tell me

           Em5
And I love you with a love so tender
          CM9
Oh and if you let me stay
      D5
I'll love all of the hurt away


Verse 2: 

G
Where are all those tears coming from
Why are they falling?

C9
somebody, somebody, somebody leave your heart in the cold

G
You just need somebody to hold on, baby
 
 C9          Em5
(Give me a chance)


To put back all the pieces

C9                 Em5
Take hold of your heart

  EbM7
Make it just like new
There's so many things that I can do

(Repeat chorus)

E|---------------------------------------------8s10--6-------|
B|----11s13-13-13-11---11s13--13—13s15-13-11-----------------|
G|-10---------------10-------------------------5s7---3-------|
D|-----------------------------------------------------------|
A|-----------------------------------------------------------|
E|-----------------------------------------------------------|

E|-8s10--6----8-8-8-8-8---6----------------------------------|
B|-----------------------------------------------------------|
G|-5s7---3----5-----------3----3s5-5-5-3---3s5--7-8--10------|
D|---------------------------3-----------3-------------------|
A|-----------------------------------------------------------|
E|-----------------------------------------------------------|


C9           Em5
Is it your heart
Oh, that's breakin' all in pieces


C9          Em5
Makin' you cry

EbM7
Makin' you feel blue
Is there anything that I can do.......


CHORUS:
              G
Why don't you tell me where it hurts now, baby
         Em5
And I'll do my best to make it better
          CM9                 D5
Yes, I'll do my best to make the tears all go away
          G
Just tell me where it hurts
Now, tell me

           Em5
And I love you with a love so tender
          CM9
Oh and if you let me stay
      D5
I'll love all of the hurt away



   G   D/F#   Em                   C9        C9      D
E---3----------2--------2-----2-----3---3-----3---3---5------------|
B---3---3------3--T--3--3--3-----3--3---3--T--3---3---5------------|
G---2---2------0--A--0-----0--------5------A--5-------5------------|
D-----------------P------------------------P-----------------------|
A-----------------------------------3---------3-------5------------|
E---3---2------0-----0-----0---------------------------------------|
           tell me...          Is there anything that i can do baby    


Outro:
e|---------------------------------------------------10-----------|
B|---8s10-10-10-10-10-8-8s10-10s12-12---8s10-10-10-8----8-8s10----|
G|-7----------------------------------7-------------------------7-|
D|----------------------------------------------------------------|
A|----------------------------------------------------------------|
E|----------------------------------------------------------------|

Comments,questions?? send me a message in friendster at 
or
You can also text me or call me at 09224012464
            
Submit corrections

↑ Back to top | Tablatures and chords for acoustic guitar and electric guitar, ukulele, drums are parodies/interpretations of the original songs. You may use it for private study, scholarship, research or language learning purposes only