Home » M » Mymp »

Mymp - I Think Im Falling Tabs

Artists:  A B C D E F G H I J K L M N O P Q R S T U V W X Y Z # 

I Think Im Falling Tabs

(ver. 1) Click to play this song!
Mymp
                capo on the 4th fret.... 

Intro:
   B             Eb           C#m             E
e|----3---3-3-------2---2-2-------0---0-0-------2-2-t-2-2h3---|
B|----3-t-3-3-------3-t-3-3-------1-t-1-1-------3-3-a-3-3-----|
G|----0-a-0-0-------0-a-0-0-------0-a-0-0-------2-2-p-2-2-----|
D|----x-p-x-x-------x-p-x-x-------2-p-2-2-----0---------------| 4x
A|---------------2-------------0------------------------------|
E|-3----------------------------------------------------------|

Verse:
   B             Eb           C#m             E
e|----3---3-3-------2---2-2-------0---0-0-------2-2-t-2-2h3---|
B|----3-t-3-3-------3-t-3-3-------1-t-1-1-------3-3-a-3-3-----|
G|----0-a-0-0-------0-a-0-0-------0-a-0-0-------2-2-p-2-2-----|
D|----x-p-x-x-------x-p-x-x-------2-p-2-2-----0---------------| 
A|---------------2-------------0------------------------------|
E|-3----------------------------------------------------------|
I wanna tell you baby
that you’re the one that im thinking of
but your heart is still with her
and i think she’s the one that you love
i only want you happy
even if it’s not with me
maybe one day
you’ll open up your eyes and you’ll see

Chorus:
   B             Eb           C#m             E
e|----3---3-3-------2---2-2-------0---0-0-------2-2-t-2-2h3---|
B|----3-t-3-3-------3-t-3-3-------1-t-1-1-------3-3-a-3-3-----|
G|----0-a-0-0-------0-a-0-0-------0-a-0-0-------2-2-p-2-2-----|
D|----x-p-x-x-------x-p-x-x-------2-p-2-2-----0---------------| 
A|---------------2-------------0------------------------------|
E|-3----------------------------------------------------------|
That i think i’m falling
maybe i’m falling for you
yeah i think i’m falling
baby i’m falling for you

Verse 2: same chords sa verse 1
you laid your lips on mine
it feels like the smile on my face
will last till the end of time
but im not so sure
you’re the one that i should pursue
my mind tells me no
but my heart only says that it’s you

Repeat chorus:

Bridge:
  C#m          C#m          G#m          G#m
e|----0---0-0------0---0-0------x---x-x------x---x-x---|
B|----1-t-1-1------1-t-1-1------x-t-x-x------x-t-x-x---|
G|----2-a-2-2------2-a-2-2------0-a-0-0------0-a-0-0---|
D|----2-p-2-2------2-p-2-2------2-p-2-2------2-p-2-2---| 3x
A|-0------------0---------------2---2-2------2---2-2---|
E|---------------------------0------------0------------|
  C#m          C#m            E=im not sure in this part:)=
e|----0---0-0------0---0-0----------2-2-2-2-------|
B|----1-t-1-1------1-t-1-1----------3-3-3-3-------|
G|----2-a-2-2------2-a-2-2-------2--2-2-2-2-------|
D|----2-p-2-2------2-p-2-2----0-------------------|
A|-0------------0---------------------------------|
E|------------------------------------------------|

Chorus: same chords lang..
Yet still i’m falling
maybe i’m falling for you
yeah i think i’m falling
baby i’m falling for you
that i think i’m falling
maybe i’m falling for you
yeah i think im falling
baby i’m falling for you


 yan lang ... hehehe ... para to kai TOTO PUALITO!!
            
Submit corrections

↑ Back to top | Tablatures and chords for acoustic guitar and electric guitar, ukulele, drums are parodies/interpretations of the original songs. You may use it for private study, scholarship, research or language learning purposes only