Home » M » Mymp »

Mymp - For All Of My Life Tabs

Artists:  A B C D E F G H I J K L M N O P Q R S T U V W X Y Z # 

For All Of My Life Tabs

(ver. 1) Click to play this song!
Mymp
Song Title     : For all of My Life
Band/ Artist   : Mymp

legend:
  x  mute note

notes:
  1. Intro will sound better if you will pluck more bass notes.
     Notes within () are optional. They are only added to give emphasis
     on the low notes.
     



first intro:

    E                  G#m (broken)     Asus2           Am
e]|--------0------------------0----------------------0----0---|
B]|------0-------0----------0------0-----------0-------t--1---|
G]|----1-----------1------4----------4-------2---------a--2---|
D]|----------------------------------------2-----------p--2---|
A]|--------------------------------------0-------(0)------0---|
E]|--0-------(0)------0-4-------(4)----0----------------------|



verse:

    E         Am          E           Am          E
e]|--------0---------0-----------0-----------0-------------0--------|
B]|------0-------------1-------0-----------------1---0-------0------|
G]|----1-----------2---------1-----1-------2-----2---1---1----------|
D]|--------------2-----------------------2-----2---2----------------|
A]|------------0-----------------------0----------------------------|
E]|--0---------------------0----------------------------------------|
   come.....-side........tell........feel..............theres.....




    Am            G#m       F#m         E                Asus2    
e|--------1--------0---------------0----------0----------------------0-----|
B|----------0-x-x--0--t--------0------------0-------0-----------0-------t--|
G|------2----------4--a------2---2--------1-----------1-------2---------a--|
D|----2---------------p-------------------------------------2-----------p--|
A|--0-----------------------------------------------------0--------0-------|
E|-----------------4---------2--------2-0--------0------0------------------|
  inside.........ready......to.......reveal..........to have.........




      G#m        C#m                   F#m
e|---------4--------4-------------4---------0------2-------|
B|-----------4------4---------------t-------0------2-2-----|
G|------------------4--------5------a-------2--------2-----|
D|-------6-----------------6--------p----------------------|
A|----------------6------4------4---------4------2---------|
E|---0-4--------4------4--------------0-2------0-----------|
   embrace.......wuth my......over.....over.....these are...




     F#m                 Am          (020200)       
e|--------------2--------0-----0---------0---0----------0------|
B|----2-pause-----2------1-------1-------------0---------------|
G|----2-pause-------x-x--2-----------x-x---2-----2-x----2------|
D|---------------------------2---------------------------------|
A|-----------------------0---------------2--------------2------|
E|--0-2-pause--------------------------------------------------|
   things...........promise..my promise..you...................



chorus:

   (020200)
e|---0------------|
B|-----0----------|
G|-2--------------|
D|----------------|
A|-------x-x------|
E|----------------|
  for all of my....



    E                G#m             Asus2              F#m  
e|--------0----------------0---------------------0------------0------------|
B|------0------0---------0------0-----------0------x--------0------0-pause-|
G|----1----------x-----4----------x-------2---------------2----------------|
D|--------------------------------------2----------------------------------|
A|------------------------------------0--------0---------------------------|
E|--0--------0-----0-4--------4-----0-----------------0-2--------2---------|
   life............one............faith-............-ever.........




    E                G#m             Asus2              F#m  
e|--------0----------------0---------------------0------------0------------|
B|------0------0---------0------0-----------0------x--------0------0-pause-|
G|----1----------x-----4----------x-------2---------------2----------------|
D|--------------------------------------2----------------------------------|
A|------------------------------------0--------0---------------------------|
E|--0--------0-----0-4--------4-----0-----------------0-2--------2---------|
   life............one............grea-...................................




second intro:


    E                  G#m (broken)     Asus2           Am
e|----------0------------------0----------------------0----0---|
B|--------0-------0----------0------0-----------0-------t--1---|
G|------1-----------1------4----------4-------2---------a--2---|
D|------------------------------------------2-----------p--2---|
A|----------------------------------------0--------0-------0---|
E|-2--0--------0-------0-4--------4-----0----------------------|
    life..............wooooh...........yeah..................


repeat the pattern for the second verse except second intro



bridge:  hindi ko alam ung mga chords.....note-by-note ko kasing ti-nab


    Dsus2            D/E             Dsus2           F#m
e|--------0-----------2-----2--------------0---------2-pause--2-----2-----|
B|------3------3-t--------3-----3-t------3------3-t--------------------t--|
G|----2----------a-x----2---------a----2----------a--------------------a--|
D|--0--------0---p----2-------2---p--0--------0---p--2-pause-----2-----p--|
A|------------------------------------------------------------------------|
E|------------------------------------------------------------------------|
...life...........................life....................................






e|--------2----------0-----4---------2-----------------2--------0---|
B|--------3--------3-------2-tap-----2-2-----2-pause-----2------1---|
G|------2--------2---------------------2-----2-pause-------x-x--2---|
D|----0--------2----------------------------------------------------|
A|--0--------0---------0-4---------2----------------------------0---|
E|-------------------------------0---------0-2-pause----------------|
  heart............................these are...........promise.....






chorus:

   (020200)
e|---0------------|
B|-----0----------|
G|-2--------------|
D|----------------|
A|-------x-x------|
E|----------------|
  for all of my....



    E                G#m             Asus2              F#m  
e|--------0----------------0---------------------0------------0------------|
B|------0------0---------0------0-----------0------x--------0------0-pause-|
G|----1----------x-----4----------x-------2---------------2----------------|
D|--------------------------------------2----------------------------------|
A|------------------------------------0--------0---------------------------|
E|--0--------0-----0-4--------4-----0-----------------0-2--------2---------|
   life............one............faith-............-ever.........




    E                G#m             Asus2              F#m  
e|--------0----------------0---------------------0------------0------------|
B|------0------0---------0------0-----------0------x--------0------0-pause-|
G|----1----------x-----4----------x-------2---------------2----------------|
D|--------------------------------------2----------------------------------|
A|------------------------------------0--------0---------------------------|
E|--0--------0-----0-4--------4-----0-----------------0-2--------2---------|
   life............one............grea-...................................




    E                G#m             Asus2              F#m  
e|--------0----------------0---------------------0------------0------------|
B|------0------0---------0------0-----------0------x--------0------0-pause-|
G|----1----------x-----4----------x-------2---------------2----------------|
D|--------------------------------------2----------------------------------|
A|------------------------------------0--------0---------------------------|
E|--0--------0-----0-4--------4-----0-----------------0-2--------2---------|
   life............one............faith-............-ever.........




    E                G#m             Asus2              F#m  
e|--------0----------------0---------------------0------------0------------|
B|------0------0---------0------0-----------0------x--------0------0-pause-|
G|----1----------x-----4----------x-------2---------------2----------------|
D|--------------------------------------2----------------------------------|
A|------------------------------------0--------0---------------------------|
E|--0--------0-----0-4--------4-----0-----------------0-2--------2---------|
   life............one............grea-...................................






ending :


                                          Am    
e|-----------------------------------------0------|
B|-----------------------------------------1------|
G|-----------------------------------------2------|
D|-----------------------------------------2------|
A|-----------------------------------------0------|
E|------------------------------------------------|
  ill give to you my greatest love......




                                   E
e|---------------------------------0-----|
B|---------------------------------0-----|
G|---------------------------------1-----|
D|---------------------------------2-----|
A|---------------------------------2-----|
E|---------------------------------0-----|
  for all of my life..............


[end]
            
Submit corrections

↑ Back to top | Tablatures and chords for acoustic guitar and electric guitar, ukulele, drums are parodies/interpretations of the original songs. You may use it for private study, scholarship, research or language learning purposes only