Home » M » Mymp »

Mymp - Love Stood Still Tabs

Artists:  A B C D E F G H I J K L M N O P Q R S T U V W X Y Z # 

Love Stood Still Tabs

(ver. 1) Click to play this song!
Mymp
 Rating:
4/5 (4 votes)
                M.Y.M.P.
New Horizon

astig 2ng kanta na 2!!!
di ganung tama pero ok na cguro yan..
paki rate po ha..^_^
comment din kung ano mali..

capo on 1st fret
Intro:

|-----------------------------------------------|
|---2-2-2-------2-2-2-------2-2-2--2-----3-3-3--|
|---2-2-2-------2-2-2-------2-2-2--2-----2-2-2--| played 2x
|---x-x-x-------x-x-x-------x-x-x--x---0-x-0-x--|
|-0-x-0-x--0--4-x-4-x--4--5---5----5------------|
|-----------------------------------------------|

|--------------------------------------------------------|
|------------11-10---------------------------10-11-11s13-|
|-7-7s8-8s10-------10-10s12--------7-8-10-10-------------|
|---------------------------8-8-10-----------------------|
|--------------------------------------------------------|
|--------------------------------------------------------|

Verse:
keo na bahala kung strumming gagawin ninyo o
plucking pero mas prefer ko ung plucking sa
kanta na 2..

kung strumming e2 gamitin nio
A-C#m-D-E

kung plucking e2 gamitin nio
A-C#/A-D/A-E

Refrain
C#m-D
C#m-E

Chorus:
A9-D9(2x)
C#m-D-E

Bridge:
A-C#m-D-C#m-E
tapos nung bridge tataas ng 1 fret higher ung chorus..
tas matatapos ung kanta sa A.

 A9    D9     D    C#m    E     A
|-0-| |-0-| |-2-| |-4-| |-0-| |-0-|
|-0-| |-2-| |-3-| |-5-| |-0-| |-2-|
|-2-| |-2-| |-2-| |-6-| |-1-| |-2-|
|-2-| |-0-| |-0-| |-6-| |-2-| |-2-|
|-0-| |-x-| |-x-| |-4-| |-2-| |-0-|
|-x-| |-x-| |-x-| |-x-| |-0-| |-x-|


Love was a lighthouse guiding the way
We were two boats on the ocean
Following shadows that led us astray
Case of mistaken emotion

Suddenly you’ve drifted back to my arms
And while we were lost in the dark

Chorus:
Love stood still
Movin’ us together
Love stood still
Leading us towards each other
Now we’re back at the start
Cos while we were apart
Love stood still

Love was a fire burned down to the
Waiting for something to spark
We were two fireflies drawn to the glow
Singing you lit the flames in my heart

I had my reasons for letting you go
But holding you again i know

[repeat Chorus]

Now you ask me to say
I’ll always feel this way
Now then nothing has ever changed

[repeat Chorus]
            
Submit corrections

↑ Back to top | Tablatures and chords for acoustic guitar and electric guitar, ukulele, drums are parodies/interpretations of the original songs. You may use it for private study, scholarship, research or language learning purposes only