Home » M » Mymp »

Mymp - I Miss You Tabs

Artists:  A B C D E F G H I J K L M N O P Q R S T U V W X Y Z # 

I Miss You Tabs

(ver. 2) Click to play this song!
Mymp
 Rating:
4/5 (4 votes)
                -------------------------------------------------------------------------------
                             I MISS YOU - MYMP
-------------------------------------------------------------------------------


Just Listen to the song and find the rythmn.
This is my first tab so dont hate on me lol.
Enjoy.

Intro:               
E|----------------------------------------------------|
B|------9h11~---------11~----------7h9~--------9~-----|
G|----10----10-----10----10-------8----8-----8----8---|
D|--11--------11-11--------11----9------9--9-------9--|
A|-9------------9--------------7---------7------------|
E|---------------------------7-----------------------7|


E|--------8h10--------4-----------4--------4----------|
B|-8-----8----8-----4---4------4~---4---4~---4--------|
G|-9----9------9----5----------5~-------5~------------|
D|-10-10--------10--6----------6~-------6~------------|
A|-8----------------4------4---4~-------4~------------|
E|----------------------------------------------------|

Verse 1:
  
E|-----4---------------------1-----------------2------|
B|---4---4--S-----4--S--1------1--S-----2--S-----2----|
G|---5------L-----5--L--2---------L-----3--L----------|
D|---6------A-----6--A--3---------A-----4--A----------|
A|4--4------P--4--4--P--1--1------P--2--2--P-2--------|
E|----------------------------------------------------|
  
E|---1-------1---------------2----------------8-------|
B|---1--S------1--S--------2---2--S---------8---8-----|
G|---2--L---------L------3--------L-------9-----------|
D|---3--A---------A---------------A-------------------|
A|1-----P--2------P--2-2----------P---8-8-------------|
E|----------------------------------------------------|

E|--------6---------4---------------------------------|
B|S-----6---6--S--4---4-------------------------------|
G|L-----7------L--5-----------------------------------|
D|A-----8------A--6-----------------------------------|
A|P-----6------P--4-----------------------------------|
E|---6------------------------------------------------|


Verse 2:
E|---4-------------------------------2------------4---|
B|-4---4--S-----4--6--6--S----2--S-----2--4--S------4-|
G|-5------L-----5--7--7--L----3--L--------5--L--------|
D|-6------A-----6--8--8--A----4--A--------6--A--------|
A|-4------P--4--4--6--6--P-2--2--P--2-----4--P--4-----|
E|----------------------------------------------------|

E|-----6---------8-----------2------------4-------4~--|
B|S--6---6--S--8---8-------2---2--------4---4--S--4~--|
G|L--7------L--9-------------------------------L--5~--|
D|A--8------A--10-------4------------6---------A--6~--|
A|P--6------P--8------2------------4-----------P--4~--|
E|----------------------------------------------------|

Chorus:Repeat 2x
E|---4--------4------1-------1-----------------2------|
B|-----4--4-4---4--1---S---1---2--S----2--S--2---2----|
G|--------5-5------2---L---2------L----3--L--3--------|
D|--------6-6------3---A---3------A----4--A--4--------|
A|-4------4-4------1---P---1------P-2--2--P--2--------|
E|----------------------------------------------------|


E|------------4------------2-------4-------4----------|
B|----4--S--4---S--6--S------2--S--4--S-------4-------|
G|----3--L--3---L--5--L---------L--5--L---------------|
D|----4--A--4---A--6--A---------A--6--A---------------|
A|-2--2--P--2---P--4--P--2------P--4--P--4------------|
E|----------------------------------------------------|


E|------------6---------------4-----------------------|
B|----6--S--6---6--S--4--S--4---4---------------------|
G|----7--L--7------L--5--L--5-------------------------|
D|----8--A--8------A--6--A--6-------------------------|
A|-6--6--P--6------P--4--P--4-------------------------|
E|----------------------------------------------------|


So heres the order..
Intro, verse 1, verse 2, chorusx2, intro verse 1, verse 2, chorusx2, and intro

Intro
Miss you…

Verse 1

Everyday and every night, this feeling I’d fight
Try as I might but I won’t win, I surrender, I’d die
You are winning here alright

Verse 2
Every morning when the sun would shine on me
I’d flash a smile but deep inside
I feel so sad and lonely
I need you here and now

Chorus x2
I miss you
It’s crazy to pretend that I don’t think of you
The more this feeling just seems to grow and grow
I miss you
Oh how much longer can I hold on to
Maybe you can come and tell me that you miss me too

Intro
Miss you…

Verse 1
All I want is for this love to last forever
You walked away, never came back, oh I tried to recover
I can’t bear it boy alright

Verse 2
When I hear a song that we had used to share
I’ll try as I might to hide the tears, and when the pain is over
I’ll wish that you are near

Chorus x2
I miss you
It’s crazy to pretend that I don’t think of you
The more this feeling just seems to grow and grow
I miss you
Oh how much longer can I hold on to
Maybe you can come and tell me that you miss me too

Intro
Miss you…
            
Submit corrections

↑ Back to top | Tablatures and chords for acoustic guitar and electric guitar, ukulele, drums are parodies/interpretations of the original songs. You may use it for private study, scholarship, research or language learning purposes only