» » »

Mxpx - Thoughts And Ideas Tabs

Artists:  A B C D E F G H I J K L M N O P Q R S T U V W X Y Z # 

Thoughts And Ideas Tabs

(ver. 2) Click to play this song!
Mxpx
 Rating:
4/5 (4 votes)

 Thoughts And Ideas lessons Tabs too difficult? Try these video lessons and learn fast
 
                Standard Tuning
(EADGBe)
* palm mute
Great song by great christian band.Listen to the song for playing it right.
Intro
guitar 1
e-----------------------
B-----------------------
G---9-12-7-------------- (Play this twice,and let every note ring)
D-7-9-12-7--------------
A-7-7-10-5--------------
E-5---------------------
guitar 2
e-----------------------
B-----------------------
G-7-9-6h7h6-------------(play this 3 times)
D-----------------------
A-----------------------
E-----------------------

e-----------------------
B-----------------------
G-7-9-6666--------------(after playing what's above 3 times, play this a fourth time,
D----------------------- then play it all over again)
A-----------------------
E-----------------------
Verse 1
e--------------------------------------------
B--------------------------------------------
G------------9999999999------------9999999999
D-7777777777-9999999999-7777777777-9999999999
A-7777777777-7777777777-7777777777-7777777777
E-5555555555------------5555555555-----------

Chorus
e-------------------------
B-------------------------
G-77777777-9-77777777-9-99
D-77777777-9-77777777-9-99
A-55555555-7-55555555-7-77
E-------------------------

e----------------------------------------
A----------------------------------------
D-----------9-9-9-9-9-----------7-7-7-7-7
G-7-7-7-7-7-9-9-9-9-9-5-5-5-5-5-7-7-7-7-7 (play this twice)
B-7-7-7-7-7-7-7-7-7-7-5-5-5-5-5-5-5-5-5-5
E-5-5-5-5-5-----------3-3-3-3-3----------
    *   *     *   *     *   *     *   *
Verse 2
e--------------------------------------------
B--------------------------------------------
G------------9999999999------------9999999999
D-7777777777-9999999999-7777777777-9999999999(play this twice)
A-7777777777-7777777777-7777777777-7777777777
E-5555555555------------5555555555-----------

e-----------------------
B-----------------------
G---9-12-7-------------- (after what's above, play this twice leting every note ring)
D-7-9-12-7--------------
A-7-7-10-5--------------
E-5---------------------

e-----------------------
B-----------------------
G-----------------------
D-7--------------------- (let ring for ending the song)
A-7---------------------
E-5---------------------

That's it.an excellent song and it is easy to play.
¡¡¡AnArQuIa!!!
            
Submit corrections


        Thoughts And Ideas lessons Hard to play? Try these video lessons and learn fast Thoughts And Ideas lessons
        
↑ Back to top | Tablatures and chords for acoustic guitar and electric guitar, ukulele, drums are parodies/interpretations of the original songs. You may use it for private study, scholarship, research or language learning purposes only