» » »

Mxpx - Thoughts And Ideas Tabs

Artists:  A B C D E F G H I J K L M N O P Q R S T U V W X Y Z # 

Thoughts And Ideas Tabs

(ver. 1) Click to play this song!
Mxpx
 Rating:
4/5 (4 votes)

 Thoughts And Ideas lessons Tabs too difficult? Try these video lessons and learn fast
 
                (as usual I didn’t put the rhythm on the Main riff and the Second riff)

Intro: Guitar 1
e---------------------------------------------------------------------
B--5-----3-----2------3p2h3-(3x)-----3-3-3-3-3---2-2------------------              G---------------------------------------------------------------------
D---------------------------------------------------------------------
A---------------------------------------------------------------------
E---------------------------------------------------------------------

Guitar 2: Intro/Main Riff
e---------------------------------------------
B---------------------------------------------
G---------------9----------12---------7-------
D----7----------9----------12---------7-------
A----7----------7----------10---------5-------
E----5----------------------------------------

Riff 2:
e-----------------------------------------------------------------------------
B-----------------------------------------------------------------------------
G---------------9---------------------9----------7-----9----------7-----9-----
D----7----------9----------7----------9----------7-----9----------7-----9-----
A----7----------7----------7----------7----------5-----7----------5-----7-----
E----5---------------------5--------------------------------------------------
            
Submit corrections


        Thoughts And Ideas lessons Hard to play? Try these video lessons and learn fast Thoughts And Ideas lessons
        
↑ Back to top | Tablatures and chords for acoustic guitar and electric guitar, ukulele, drums are parodies/interpretations of the original songs. You may use it for private study, scholarship, research or language learning purposes only