» » »

Mxpx - Southbound Tabs

Artists:  A B C D E F G H I J K L M N O P Q R S T U V W X Y Z # 

Southbound Tabs

(ver. 2) Click to play this song!
Mxpx
 Rating:
4/5 (4 votes)

 Southbound lessons Tabs too difficult? Try these video lessons and learn fast
 
                E---------------------------------------|------------------------------------------
B---------------------------------------|------------------------------------------
G------------4h5p4--------------4h5p4---|--7---4h5p4-----7---4h5p4----7----4h5p4---
D---54575-757-----7-54575---757-------7-|-5-57-------7-5--57------7-5--57--------57
A--------3---------5------3-------------|------------------------------------------
E---------------------------------------|------------------------------------------

E---------------------------------------------------------------------------------
B---------------------------------------------------------------------------------
G----4-5-4-------7-------4h5p4-----7---4h5p4-----7------4h5p4--------4-5-4--------
D--7-------5-7-5---5-7---------7-5--57--------7-5--5-7---------5-7-7-------5-7----
A---------------------------------------------------------------------------------
E---------------------------------------------------------------------------------

E---------------------------------------
B---------------------------------------
G------------4h5p4--------------4h5p4---
D---54575-757-----7-54575---757-------7-
A-5------3---------5------3-------------
E---------------------------------------

End on G
            
Submit corrections


        Southbound lessons Hard to play? Try these video lessons and learn fast Southbound lessons
        
↑ Back to top | Tablatures and chords for acoustic guitar and electric guitar, ukulele, drums are parodies/interpretations of the original songs. You may use it for private study, scholarship, research or language learning purposes only