Home » M » Mxpx »

Mxpx - First Class Mail Bass

Artists:  A B C D E F G H I J K L M N O P Q R S T U V W X Y Z # 

First Class Mail Bass

(ver. 2) Click to play this song!
Mxpx
 Rating:
4/5 (4 votes)
                Verse
G |-----------------------------------------------------|
D |------------------------------------------------------|
A |--22222222----------44444444--------------------------|  X8
E |-----------22222222----------44444444-----------------|

Pre _Chorus

A  |---22222222--44444444--66666666--8656----------|    X2


Chorus
FIRST PART
A |------5-----]------------55555555-------|
                 X4   then:                   all that X2
E |---55---567-]---------------------------

SECOND PART OF CHORUS
A |----5-------------------|
E |-5----567-----------------|    X1

Then;
Verse X8
Pre chorus X2
Chorus X2   [first part]
Second part of chorus X4
 
And thas it.A very easy song but a very good song!
            
Submit corrections

↑ Back to top | Tablatures and chords for acoustic guitar and electric guitar, ukulele, drums are parodies/interpretations of the original songs. You may use it for private study, scholarship, research or language learning purposes only