Home » M » Mxpx »

Mxpx - First Class Mail Bass

Artists:  A B C D E F G H I J K L M N O P Q R S T U V W X Y Z # 

First Class Mail Bass

(ver. 1) Click to play this song!
Mxpx
 Rating:
4/5 (4 votes)
                Tuning: Standard (low to high: E A D G)

Questions, comments, or corrections, 

Intro:                                   2x
G|-------------------------------------|
D|-------------------------------------|
A|-1111111----------4444444------------|  
E|----------2222222---------4444444----|

Verse:                                                        6x
G|----------------------------------------------------------|
D|----------------------------------------------------------|
A|-1-1-2-1-1-1-1---------------4-4-5-4-4-4-4----------------|  
E|---------------2-2-3-2-2-2-2---------------4-4-5-4-4-4-4--|

Pre-Chorus:                                                   2x
G|----------------------------------------------------------|
D|----------------------------------------------------------|
A|-1-1-2-1-1-1-1-4-4-5-4-4-4-4-6-6-7-6-6-6-6-99-88-66-44----|
E|----------------------------------------------------------|

Chorus:                    
G|----------------------------------------------|
D|----------------------------------------------|
A|-----4---------4---------4-----6666-99-88-----|
E|-666---666-666---666-666---666----------------|                    

G|-------------------------------------------------------|
D|-------------------------------------------------------|
A|-----4---------4---------4-----6666-99-88-------4------|
E|-666---666-666---666-666---666------------6--22---2-4--|
   
Outro:
G|----------------------------------------------------------|
D|----------------------------------------------------------|
A|-------------4-----------------4-----------------4--------|
E|-66666666-22---2-4-66666666-22---2-4-66666666-22---2-4-6--|

Order:

Intro
Verse
Pre-Chorus
Chorus
Intro
Verse
Pre-Chorus
Chorus
Outro
            
Submit corrections

↑ Back to top | Tablatures and chords for acoustic guitar and electric guitar, ukulele, drums are parodies/interpretations of the original songs. You may use it for private study, scholarship, research or language learning purposes only