Home » M » Mudvayne »

Mudvayne - Scarlet Letters Bass

Artists:  A B C D E F G H I J K L M N O P Q R S T U V W X Y Z # 

Scarlet Letters Bass

(ver. 2) Click to play this song!
Mudvayne
 Rating:
4/5 (4 votes)
                Tuning: drop C (C-G-C-F)

Intro/verse(s)

 W           W             W          H     H
|-----------|-------------|--------|---------------|
|-----------|-------------|--------|---------------|
|0----------|-------------|3-------|--3-----2------|
|-----------|2------------|--------|---------------|  6x

Chorus

|--------------------------------------------------------------------|
|-----------------------------------------------------------5-5\3-3--|
|--0-0-0-0--3-2-0-2--------------------------------------------------|
|--------------------2-2-2-2--2-2/5-------5-5-5-5-5--0-0-5~~---------|  2x
                              


Bridge 
|------------------------------------------------|
|------------------------------------------------|
|--------10----10----10--------10---10---9-------|
|--10-10----10----10-------9-9----9----9---------|


|-----------------------------------------------------|
|-----------------------------------------------------|
|------7---7---7--------7---7---7--------7---7---7----|
|--7-7---7---7------7-7---7---7------7-7---7---7------|


|----------------------------------------------------------|
|----------------------------------------------------------|
|----------------------------------------------------------|
|--10-10-10-----9--9--9------7--7--7-7-----7--7--7-7-7-9---|

figured i'd throw one out there, 
this is just a simple way of doing it by just 
following the root note of the guitar line, 
its definitly not perfect but its better then nothing.

Vince
            
Submit corrections

↑ Back to top | Tablatures and chords for acoustic guitar and electric guitar, ukulele, drums are parodies/interpretations of the original songs. You may use it for private study, scholarship, research or language learning purposes only