Home » M » Mudvayne »

Mudvayne - Scarlet Letters Bass

Artists:  A B C D E F G H I J K L M N O P Q R S T U V W X Y Z # 

Scarlet Letters Bass

(ver. 1) Click to play this song!
Mudvayne
 Rating:
4/5 (4 votes)
                Scarlet Letters
Tuning: (low to high, 5 string) G-C-G-C-F

(Wait for a few seconds for the bass to come in), hope you like it
F:|-----|------|-----|-----|-----|------|-----|-----|-----|-----|
C:|-----|------|-----|-----|-----|------|-----|-----|-----|-----|
G:|3----|2-----|0----|-----|3----|3--2--|0----|-----|3----|2----|1
C:|-----|---5--|-----|2----|-----|------|-----|2----|-----|---5-|
G:|-----|------|-----|-----|-----|------|-----|-----|-----|-----|

F:|-----|-----|-----|------|-----|-----|-----|------|-----|-----|
C:|-----|-----|-----|------|-----|-----|-----|------|-----|-----|
G:|0----|-----|3----|7--5--|0----|-----|3----|2-----|0----|-----|2
C:|-----|2----|-----|------|-----|2----|-----|---5--|-----|2----|
G:|-----|-----|-----|------|-----|-----|-----|------|-----|-----|

F:-----|-----|--------------------------------------------------|
C:-----|-----|--------------------------------------------------|
G:3----|-----|0-0-0-0-3-2-0-2-----------------------------------|3
C:-----|-----|----------------2-2-2-2-0-2-0-2-3-5-5-5-5-3-5-3-5-|
G:-----|3----|--------------------------------------------------|

F:------------------------------------------------------------------|
C:-----5-5-3-3-3-3--------------------------------------------------|
G:-----------------0-0-0-0-3-2-0-2----------------------------------|4
C:-0-0-----------------------------2-2-2-2-0-2-0-2-3-5-5-5-5-3-5-3-5|
G:------------------------------------------------------------------|
(to save space, i wont put in the low G because its not used for a while)
F:-----|----------------------------------------------------(--------|
C:0----|----------------------------------------------------(--------|
G:(X2--|0-000-0-0-3-2-0-2-----------------------------------(5--0-5-0|5
C:start)------------------2-222-2-2-0-2-3-5-5-5-3-5-3-5-0-0-(--------|
(Means 1st time only)
F:-------)-|       |-------|---------------------------------------------|
C:-------)-|(X2end)|-------|---------------------------------------------|
G:--3----)-|       |7--35--|0-000-0-0-3-2-0-2----------------------------|6
C:----3-3)-|       |-------|------------------2-222-2-2-0-2-0-2-3-5-5-5-5|
         (its 3-5, not 35, but they're rlly close together)
F:|----------------|-----------------------------------------------------|
C:|------5-05------|-----------------------------------------------------|
G:|-----------3----|0-000-0-0-3-2-0-2------------------------------7--5--|7
C:|3-5-0--------3-3|------------------2-222-2-2-0-2-3-5-5-5--5-3-0-------|

F:|--------------------------------------------------------------|
C:|--------------------------------------------------------------|
G:|0-000-0-3-2-0-2----------------------------------5--3-0-3-----|8
C:|----------------2-222-2-2-0-2-0-2-3-5--5-5-5-3-0----------3-3-|
   (Now you should be at 1:29 or 1:30 starting on the line below)
F:|---------------------------------------------------|
C:|---------------------------------------------7--5--|
G:|0-000-0-0-3-2-0-2-----------------3--3-0-5-3-------|9
C:|------------------2-222-2-0-2-0-0------------------|

F:|------------------------------------------------------------|
C:|----------------------------------------------------5-5-3-3-|10
G:|0-0-0-0-3-2-0-2---------------------------------------------|
C:|----------------2-2-2-2-0-2-0-3-5-5-5-5-3-5-3-5-0-0---------|

F:|------------------------------------------------------------|
C:|---------------------------------------------------(0)------|11
G:|0-0-0-0-3-2-0-2-------------------------------------5-5-3-3-|
C:|----------------2-2-2-2-0-2-0-3-5-5-5-5-3-5-3-5-0-0---------|
(do line 10+11 2X)                                 (2nd time only)
F:|-----------------------------------------------------|
C:|-------10----12----14----15----14-----12----10-------|
G:|-----------------------------------------------------|12
C:|-10-10----10----10----10----10-----10----10----10-9-9|

F:|---------------------------------------------------------|
C:|---------------------------------------------------------|
G:|-----12---14---15---141514---12---10---101210------------|13
C:|-9-9----9----9----9--------9----9----9--------9-7-6-42-00|

F:|---------------------------------------------|
C:|---------------------------------------------|(X2)
G:|-10-10-10-10--9-9-9-9--7-7-7-7--7-7-7-7-7-9-9|14
C:|---------------------------------------------|

F:----------------------------------------------------|
C:----------10-----------10---------------------------|
G:-10-10-10----10--9-9-9----9--7-7-7-7-7-7-7-7-9-9-9-9|15
C:----------------------------------------------------|

F:|--------------------------------------------------------------|
C:|----------10-----------10------------10---9---7---6---4---640-|
G:|-10-10-10----10--9-9-9----9--7-7-7-7----7---7---7---7---7-----|16
C:|--------------------------------------------------------------|

F:|---------------------------------------------------------------|
C:|---------------------------------------------------------------|(X2)
G:|0-0-0-0-3-2-0-2------------------------------------------------|17
C:|----------------2-2-2-2-2-2-2-2-5-5-5-5-5-3-5-3-0-0-0-0-0-0-0-0|

F:|--------------------------------------------------------|
C:|--------------------------------------------------------|(X2)
G:|0-0-0---3-2-0-2-----------------------------------------|18
C:|----------------2-2-2---2-2-3-5-5---5-5-5-3-0-0---X-0-0-|
 (to play the X, lightly place your finger on the string,and strum normally)
F:|-------------------------------------------------------------------|
C:|-------------------------------------------------------------------|(X2)
G:|0-0-0-0-3-2-0-2----------------------------------------------------|
C:|----------------2-2-2-2-2-2-0-2-3-5-5-5-5-5-5-5-5-5-5-3-0-0-0-X-0-0|

F:|-----|-----|-----|------|-----|-----|-----|------|-----|-----|-----|
C:|-----|-----|-----|------|-----|-----|-----|------|-----|-----|-----|
G:|0----|-----|3----|2-----|0----|-----|3----|9--7--|0----|-----|3----|
C:|-----|2----|-----|---5--|-----|2----|-----|------|-----|2----|-----|

F:|------|-----|-----|-----|
C:|------|-----|-----|-----|
G:|2-----|0----|-----|3----|
C:|---5--|-----|2----|-----|
G:|------|-----|-----|3----|
            
Submit corrections

↑ Back to top | Tablatures and chords for acoustic guitar and electric guitar, ukulele, drums are parodies/interpretations of the original songs. You may use it for private study, scholarship, research or language learning purposes only