Home » M » Mudvayne »

Mudvayne - Scarlet Letters Tabs

Artists:  A B C D E F G H I J K L M N O P Q R S T U V W X Y Z # 

Scarlet Letters Tabs

(ver. 1) Click to play this song!
Mudvayne
 Rating:
4/5 (4 votes)
                cover) and a lot of people have been askin for the tabs, so here it is.
I am also aware that Greg Tribbet plays the intro and verses with a 12 string and ill have
you know that i dont play a 12 string, and that this was entirely figured out by ear. enjoy!

Tuning: drop C (C-G-C-F-A-D)

Intro/verse(s) (clean)
|---------------------------------------------------------------------|
|---------0---------------------------1---3-----3-----3-------3-------|
|-----2-----2---2---------0---------0-------0-------0---0---0---0-----|
|---2---2-----2-------2-----2---2-------------------------------------|
|-0-----------------2---2-----2---3-----3-----3---2-------2-----------|
|-----------------2---------------------------------------------------|  6x

Chorus (i probably didnt get all the dynamics in but if you listen to the song and my tabs
youll get it down)
|--------------------------------------------------------------------|
|-----------------------------------------------------------8-8\6-6--|
|--2-2-2-2--------------------------------------------------x-x\x-x--|
|--2-2-2-2-----------2-2-2-2----2/5--5-5----5-----5---------5-5\3-3--|
|--0-0-0-0--3-2-0-2--2-2-2-2--2-2/5--5-5--5-5-5-5-5--0-0-------------|
|--------------------2-2-2-2--2-2/5--5-5--5-5-5-5-5--0-0-5~~---------|  2x
                              * *         *   * *
(The palm muting shown in the chorus is used after the bridge. DO NOT play the four octaves
at the end of every chorus. listen to the song)

Bridge (youll figure out the picking pattern after a while)
|------------------------------------------------|
|------------------------------------------------|
|------------------------------------------------|
|--------10----12----10--------12---10---9-------|
|--------10----10----10--------10---10---9-------|
|--10-10----10-10-10-10-xx-9-9----9----9---x-----|

|-----------------------------------------------------|
|-----------------------------------------------------|
|-----------------------------------------------------|
|------7---9---7--------7---9---7--------7---9---7----|
|------7---7---7--------7---7---7--------7---7---7----|
|--7-7---7---7---xx-7-7---7---7---xx-7-7---7---7---xx-|

|----------------------------------------------------------|
|----------------------------------------------------------|
|----------------------------------------------------------|
|--12-12-12-x-x-12-12-12-x-x-7--7--7-7-x-x-7--7--7-7-7-----|
|--10-10-10-x-x-10-10-10-x-x-7--7--7-7-x-x-7--7--7-7-7-9---|
|--10-10-10-x-x-9--9--9--x-x-7--7--7-7-x-x-7--7--7-7-7-9---|

thats my tab for Scarlet Letters by Mudvayne, adapted for the standard guitar. comments, questions,

End
            
Submit corrections

↑ Back to top | Tablatures and chords for acoustic guitar and electric guitar, ukulele, drums are parodies/interpretations of the original songs. You may use it for private study, scholarship, research or language learning purposes only