» » »

Mudvayne - All That You Are Bass

Artists:  A B C D E F G H I J K L M N O P Q R S T U V W X Y Z # 

All That You Are Bass

(ver. 2) Click to play this song!
Mudvayne
 Rating:
4.3/5 (6 votes)


 All That You Are lessons Tabs too difficult? Try these video lessons and learn fast
 
                Band- Mudvayne
Song- All That You Are

tuning (low to high) - C G C F

rest until 1:32

Riff 1 x4
|---------------------------------------------------------------------|
|---------------------------------------------------------------10h12-|
|---------------------------10-10-10-10--10-10-10--10--12-12-12-------|
|-11-11-11--11-11-11--11h12-------------------------------------------|

|----------------------------------------------|
|----------------------------------------------|
|---------------------------12-12-12-----------|
|-10-10-10--10-10-10--10h12----------0-5-5-5-5-|

Riff 2 x2
|-------8-------8---------8---------8---|
|---------------------------------------|
|-----6---6---6---6-----6---6-----6---6-|
|-0-0-------0-------0-0-------0-0-------|
      s p s   s p s     s p s     s p s

Riff 1 x4

Riff 2 x2

Riff 3 x2
|--------------------------------------------------------------|
|--------------------------------------------------------------|
|--------------------------------------------------------------|
|-1-1-1-0--1-1-1-0--1-1-1-0-1-0--3-3-3-1--3-3-3-1--63003h5p3p0-|

Riff 1 x4

Riff 2 x2

Riff 3 x4

Riff 4 x1
|------------------------------------------------------------------------------------|
|------------------------------------------------------------------------------------|
|------------------------------------------------------------------------------------|
|-63003h5p3p0--63003h5p3p0--63005b--63003h5p3p0--63003h5p3p0--63003h5p3p0--63005b--3-|

Riff 5 x1
|--------------------------------------------------------------------------------|
|---12---12----12---14---14----------------12---12---12-14-14-14---14------------|
|--------------------------------------------------------------------------------|
|-5----5-----5----6----6----63003h5p3p0--5----5----5-------------6----0033668855-|
  L R  L R   L R  L R  L R               L R  L R  L R  R  R  R  L R 

|------------------------------------------------------------------------------------|
|---12---12----12---14---14----------------12---12---12--14--14-14-14----------------|
|------------------------------------------------------------------------------------|
|-5----5-----5----6----6----63003h5p3p0--5----5----5------------------6h8-0033668855-|
  L R  L R   L R  L R  L R               L R  L R  L R   R   R  R  R  L

Riff 6 x4
|--------------------------|
|-12121212-----14-----12---|
|----------------14--------|
|----------5h6------6----5-|
  R R R R  L   R R  L R  L

Riff 3 x4(on 4th time, dont play 63003h5p3p0 part)
            
Submit corrections



        All That You Are lessons Hard to play? Try these video lessons and learn fast All That You Are lessons
        
↑ Back to top | Tablatures and chords for acoustic guitar and electric guitar, ukulele, drums are parodies/interpretations of the original songs. You may use it for private study, scholarship, research or language learning purposes only