» » »

Mudvayne - All That You Are Tabs

Artists:  A B C D E F G H I J K L M N O P Q R S T U V W X Y Z # 

All That You Are Tabs

(ver. 1) Click to play this song!
Mudvayne
 Rating:
3.5/5 (8 votes)


 All That You Are lessons Tabs too difficult? Try these video lessons and learn fast
 
                Hey, SamTMFM again, almost immediately after I submitted my first tab for this song I
found some errors, but don't worry, I went back and fixed everything. I think you will
find this tab much more accurate than the last one.

Tuning: Drop D down 1 step (C-G-C-F-A-D)

X = mute
h = hammer-on
p = pull-off
r = let ring

Intro (clean): let ring
D|------------------------|------------------------|
A|------------------------|-------6-----------6----|
F|-----7-8-7-------7-8-7--|-----7---7-------7---7--| (8X)
C|------------------------|------------------------|
G|-6-----------6----------|-8-----------8----------|
C|------------------------|------------------------|
                 Last part of intro.....
D|------------------------|------------------------|
A|------------------------|-------6----------------|
F|-----7-8-7-------7-8-7--|-----7---7--------------|
C|------------------------|------------------------|
G|-6-----------6----------|-8------------8---------|
C|------------------------|------------------------|

Verse (clean):
D--------------------------------|----------------------------------|
A--------------------------------|----------------------------------|
F-----------------0-0-0-0-0-0-0-0|----------------------------------| (4X)
C-0-0-0-0-0-0-0-0-5-5-5-5-5-5-5-5|-0-0-0-0-0-0-0-0-0-0-0-0----------|
G-6-6-6-6-6-6-6-6----------------|-5-5-5-5-5-5-5-5-3-5-5-5---0-0-0-0|
C--------------------------------|-------------------------0-5-5-5-5|

Pre-Chorus (distortion):
D|-------------------------------|
A|-------------------------------|
D|-----8-------8-------8------8--| (2X)
C|-----X-------X-------X------X--|
G|-----6-------6-------6------6--|
C|-0-0---0---0---0-0-0---0rr00--0|

Play Verse (4X)

Play Pre-Chorus (2X)

Chorus (distortion):
D|----------------------------------------------------|--------------|
A|----------------------------------------------------|--------------|
F|----------------------------------------------------|--------------| (X2)
C|-1-1-1-0---1-1-1-0---1-1-1-0-1-0-3-3-3-1---3-3-3-1--|-63003h5p3p0--|
G|-1-1-1-0---1-1-1-0---1-1-1-0-1-0-3-3-3-1---3-3-3-1--|-63003h5p3p0--|
C|-1-1-1-0---1-1-1-0---1-1-1-0-1-0-3-3-3-1---3-3-3-1--|-63003h5p3p0--|

Interlude (clean): let ring
D|----------------|---------------------|
A|------6-----6---|---------------------|
F|----7---7-------|----7------7-----7---| (X2)
C|-5--------5-----|------10-----10--8---|
G|----------------|---------------------|
C|----------------|-0-------------------|

Play Verse (2X)

Play Pre Chorus (2X)

Play Chorus (2X), play Altered Chorus (shown below) once, Then play Chorus one more time.

Altered Chorus (distortion):
D|----------------------------------------------|--------------|
A|----------------------------------------------|--------------|
F|----------------------------------------------|--------------|
C|-1-1-1-0---1-1-1-0---X-XXX-3-3-3-1--3-3-3-1---|-63003h5p3p0--|
G|-1-1-1-0---1-1-1-0---X-XXX-3-3-3-1--3-3-3-1---|-63003h5p3p0--|
C|-1-1-1-0---1-1-1-0---X-XXX-3-3-3-1--3-3-3-1---|-63003h5p3p0--|

Break (distortion): (including first riff shown below for end of chorus).
D|----------------------------------------------------|
A|----------------------------------------------------|
F|----------------------------------------------------|
C|-63003h5p3p0---63003h5p3p0---63003h5p3p0---63005rr--|
G|-63003h5p3p0---63003h5p3p0---63003h5p3p0---63005rr--|
C|-63003h5p3p0---63003h5p3p0---63003h5p3p0---63005rr--|

D|------------------------------------------------------|
A|------------------------------------------------------|
F|------------------------------------------------------|
C|-63003h5p3p0---63003h5p3p0---63003h5p3p0---63005rr3rr-|
G|-63003h5p3p0---63003h5p3p0---63003h5p3p0---63005rr3rr-|
C|-63003h5p3p0---63003h5p3p0---63003h5p3p0---63005rr3rr-|

D|------------------|-------------|-------------------|------------|
A|------------------|-------------|-------------------|------------|
F|-77-77---77-88-88-|-------------|-77-77-77-88-88-88-|------------| (2X)
C|-XX-XX---XX-XX-XX-|-63003h5p3p0-|-XX-XX-XX-XX-XX-XX-|------------|
G|-55-55---55-66-66-|-63003h5p3p0-|-55-55-55-66-66-66-|------------|
C|------------------|-63003h5p3p0-|-------------------|-0033668855-|

D|------------------|-------------|-------------------|-------------|
A|------------------|-------------|-------------------|-------------|
F|-77-77---77-88-88-|-------------|-77-77-77-88-88-88-|-------------|
C|-XX-XX---XX-XX-XX-|-63003h5p3p0-|-XX-XX-XX-XX-XX-XX-|-63008rrrr3/2|
G|-55-55---55-66-66-|-63003h5p3p0-|-55-55-55-66-66-66-|-63008rrrr3/2|
C|------------------|-63003h5p3p0-|-------------------|-63008rrrr3/2|

Play Chorus (2X), play Altered Chorus once, Then play Altered Chorus II (shown below).

Altered Chorus II (distortion):
D|----------------------------------------------------|
A|----------------------------------------------------|
F|-------------------------------------------------3--|(let last chord ring)
C|-1-1-1-0---1-1-1-0---1-1-1-0-1-0-3-3-3-1---3-3-3-2--|
G|-1-1-1-0---1-1-1-0---1-1-1-0-1-0-3-3-3-1---3-3-3-1--|
C|-1-1-1-0---1-1-1-0---1-1-1-0-1-0-3-3-3-1---3-3-3-1--|

Chorus Fades in at end, play as many times as desired.


I think you witll find that tab much more accurate than the last.
If you have have any comments, questions, or corrections, I would             really 
to hear them.

Thanks and enjoy the tab,
SamTMFM
            
Submit corrections



        All That You Are lessons Hard to play? Try these video lessons and learn fast All That You Are lessons
        
↑ Back to top | Tablatures and chords for acoustic guitar and electric guitar, ukulele, drums are parodies/interpretations of the original songs. You may use it for private study, scholarship, research or language learning purposes only