» » »

Motorhead - All He Aces Tabs

Artists:  A B C D E F G H I J K L M N O P Q R S T U V W X Y Z # 

All He Aces Tabs

(ver. 1) Click to play this song!
Motorhead
 Rating:
1.8/5 (30 votes)

 All He Aces  lessons Tabs too difficult? Try these video lessons and learn fast
 
                e|-12--12-----------------------------------------------------------------|
B|-15b-15b-15b-15-12h15p12----12h15p12----12------------------------------|
G|-------------------------14----------14----14-12h14p12----12h14p12------|
D|-------------------------------------------------------14----------14---|
A|------------------------------------------------------------------------|
E|------------------------------------------------------------------------|

e|------------------------------------------------------------------------|
B|-------------------15---------------------------------------------------|
G|-12-14-12-14b-14b-----14b--12h14p12----12-14b--12h14p12----12h14p12-----|
D|------------------------------------14------------------14----------14--|
A|------------------------------------------------------------------------|
E|------------------------------------------------------------------------|

e|------------------------------------------------------------------------|
B|-------------------------------------------------10---------------------|
G|-12-14-12-11-12-11-9-11-9-7-9-9b--9b-9b-9pbr7-9b----9pbr7-7h9p7---7-----|
D|----------------------------------------------------------------9---9---|
A|------------------------------------------------------------------------|
E|------------------------------------------------------------------------|


e|------------------------------------------------------------------------|
B|----------------------------------10------------------------------------|
G|---------------------7h9p7---7-9b----9pbr7---7h9p7---7~/----------------|
D|-5---5-5h7p5---5h7/9-------9---------------9-------9--------------------|
A|---7---------7----------------------------------------------------------|
E|------------------------------------------------------------------------|

1:56

e|---------------------------------------14-----14--------14--------14----|
B|------------------------------------14-----14--------14--------14----16b|
G|-16b-16b-16b-16b-16pbr14-16-14--16b--------------16b-------16b----------|
D|------------------------------------------------------------------------|
A|------------------------------------------------------------------------|
E|------------------------------------------------------------------------|


e|-14----------------------------------------------------------------------|
B|----17-14h17p14----14----------------------------------------------------|
G|----------------16----16-14h16p14----14h16p14----14-16-14-13--11--9------|
D|----------------------------------16----------16-------------------------|
A|-------------------------------------------------------------------------|
E|-------------------------------------------------------------------------|
            
Submit corrections


        All He Aces  lessons Hard to play? Try these video lessons and learn fast All He Aces  lessons
        
↑ Back to top | Tablatures and chords for acoustic guitar and electric guitar, ukulele, drums are parodies/interpretations of the original songs. You may use it for private study, scholarship, research or language learning purposes only