» » »

Motionless In White - Voices Tabs

Artists:  A B C D E F G H I J K L M N O P Q R S T U V W X Y Z # 

Voices Tabs

(ver. 1) Click to play this song!
Motionless In White
 Rating:
4.4/5 (7 votes)

 Voices lessons Tabs too difficult? Try these video lessons and learn fast
 
                C |-------------|-------------|-------------|----------------|
G |-------------|-------------|-------------|----------------|
D#|-------------|-------------|-------------|----------------|
A#|-0--0---7--7-|-8--8---5--5-|-0--0---7--7-|-8--8--8--8--7\-|
F |-0--0---7--7-|-8--8---5--5-|-0--0---7--7-|-8--8--8--8--7\-|
A#|-0--0---7--7-|-8--8---5--5-|-0--0---7--7-|-8--8--8--8--7\-|

Guitar 1 + 2 (on record)

C |-------------|-------------|-------------|-------------------|
G |-------------|-------------|-------------|-------------------|
D#|-------------|-------------|-------------|-------------------|
A#|-0--0---0--0-|-0--0---0--0-|-8--8---8--8-|-8--8---7--7--7--7-|
F |-0--0---0--0-|-0--0---0--0-|-8--8---8--8-|-8--8---7--7--7--7-|
A#|-0--0---0--0-|-0--0---0--0-|-8--8---8--8-|-8--8---7--7--7--7-|

Guitar 2 (at live shows)

C |-17----17----17-18-17----17----17-18-17----17----17-18-20----18----|
G |----15----15----------15----15----------15----15----------15----15-|
D#|-------------------------------------------------------------------|
A#|-------------------------------------------------------------------|
F |-------------------------------------------------------------------|
A#|-------------------------------------------------------------------|

C |-17----17----17-18-17----17----17-18-17----17----17-18-17----15----|
G |----15----15----------15----15----------15----15----------15----15-|
D#|-------------------------------------------------------------------|
A#|-------------------------------------------------------------------|
F |-------------------------------------------------------------------|
A#|-------------------------------------------------------------------|

Guitar 1

C |----------------|----------------|----------------|-------------------|
G |----------------|----------------|----------------|-------------------|
D#|-------x-10--10-|-------x-10--10-|-------x-10--10-|-------12-12-12-12-|
A#|-0--0-----------|-0--0-----------|-0--0-----------|-0--0--------------|
F |-0--0--x-8---8--|-0--0--x-8---8--|-0--0--x-8---8--|-0--0--10-10-10-10-|
A#|-0--0-----------|-0--0-----------|-0--0-----------|-0--0--------------|

C |----------------|----------------|----------------|-------------------|
G |----------------|----------------|----------------|-------------------|
D#|-------x-10--10-|-------x-10--10-|-------x-10--10-|-------12-12-12-12-|
A#|-8--8-----------|-8--8-----------|-8--8-----------|-7--7--------------|
F |-8--8--x-8---8--|-8--8--x-8---8--|-8--8--x-8---8--|-7--7--10-10-10-10-|
A#|-8--8-----------|-8--8-----------|-8--8-----------|-7--7--------------|

Guitar 2 (at live shows)

C |-17----17----17-18-17----17----17-18-17----17----17-18-19----18----|
G |----15----15----------15----15----------15----15----------15----15-|
D#|-------------------------------------------------------------------|
A#|-------------------------------------------------------------------|
F |-------------------------------------------------------------------|
A#|-------------------------------------------------------------------|

C |-17----17----17-18-17----17----17-18-17----17----17-18-17----15----|
G |----15----15----------15----15----------15----15----------15----15-|
D#|-------------------------------------------------------------------|
A#|-------------------------------------------------------------------|
F |-------------------------------------------------------------------|
A#|-------------------------------------------------------------------|

Guitar 2 (on the record)

C |----------------|----------------|----------------|-------------------|
G |-------x-10--10-|-------x-10--10-|-------x-10--10-|-------11-11-11-11-|
D#|----------------|----------------|----------------|-------------------|
A#|-0--0--x-7---7--|-0--0--x-7---7--|-0--0--x-7---7--|-0--0--8--8--8--8--|
F |-0--0-----------|-0--0-----------|-0--0-----------|-0--0--------------|
A#|-0--0-----------|-0--0-----------|-0--0-----------|-0--0--------------|

C |----------------|----------------|----------------|------------|
G |-------x-10--10-|-------x-10--10-|-------x-10--10-|------------|
D#|----------------|----------------|----------------|------------|
A#|-8--8--x-7---7--|-8--8--x-7---7--|-8--8--x-7---7--|-7--7--7--7-|
F |-8--8-----------|-8--8-----------|-8--8-----------|-7--7--7--7-|
A#|-8--8-----------|-8--8-----------|-8--8-----------|-7--7--7--7-|

Chorus:

C |------------------------------|------------------------------|
G |------------------------------|------------------------------|
D#|------------------------------|------------------------------|
A#|-------0-7-0-8--------0-8-0-7-|-------0-7-0-8--------0-7-8-7-|
F |-0--0----------0-0-0----------|-0--0----------0-0-0----------|
A#|-0--0----------0-0-0----------|-0--0----------0-0-0----------|
    .  .          . . .  . . .     .  .          . . .  . . . 

C |------------------------------|-------------------------------|
G |------------------------------|-------------------------------|
D#|------------------------------|-------------------------------|
A#|-------0-7-0-8--------0-8-0-7-|-------x-0-7-8-----------------|
F |-8--8----------8-8-8----------|-8--8------------3-5---5-3-0-1-|
A#|-8--8----------8-8-8----------|-8--8----------0-----0---------|
    .  .  . . .   . . .  . . .     .  .           

C |------------------------------|------------------------------|
G |------------------------------|------------------------------|
D#|------------------------------|------------------------------|
A#|-------0-7-0-8--------0-8-0-7-|-------0-7-0-8--------0-7-8-7-|
F |-0--0----------0-0-0----------|-0--0----------0-0-0----------|
A#|-0--0----------0-0-0----------|-0--0----------0-0-0----------|
    .  .          . . .  . . .     .  .          . . .  . . . 

C |------------------------------|-------------------------------|
G |------------------------------|-------------------------------|
D#|------------------------------|-------------------------------|
A#|-------0-7-0-8--------0-8-0-7-|-------x-0-7-8-----------------|
F |-8--8----------8-8-8----------|-8--8------------3-5---5-3-0-1-|
A#|-8--8----------8-8-8----------|-8--8----------0-----0---------|
    .  .  . . .   . . .  . . .     .  .       

Refrain:

C |-------------|-------------|-------------|----------------|
G |-------------|-------------|-------------|----------------|
D#|-------------|-------------|-------------|----------------|
A#|-0--0---7--7-|-8--8---5--5-|-0--0---7--7-|-8--8--5--x-x-5-|
F |-0--0---7--7-|-8--8---5--5-|-0--0---7--7-|-8--8--5--x-x-5-|
A#|-0--0---7--7-|-8--8---5--5-|-0--0---7--7-|-8--8--5--x-x-5-|

C |------------------------|------------------------|------------------------|------------------------|
G |------------------------|------------------------|------------------------|------------------------|
D#|------------------------|------------------------|------------------------|------------------------|
A#|-0--0--0--0--7--7--7--7-|-8--8--8--8--5--5--5--5-|-0--0--0--0--7--7--7--7-|-8--8--8--8--5--5--5--5-|
F |-0--0--0--0--7--7--7--7-|-8--8--8--8--5--5--5--5-|-0--0--0--0--7--7--7--7-|-8--8--8--8--5--5--5--5-|
A#|-0--0--0--0--7--7--7--7-|-8--8--8--8--5--5--5--5-|-0--0--0--0--7--7--7--7-|-8--8--8--8--5--5--5--5-|

C |------------------------|------------------------|------------------------|------------------------|
G |------------------------|------------------------|------------------------|------------------------|
D#|------------------------|------------------------|------------------------|------------------------|
A#|-0--0--0--0--7--7--7--7-|-8--8--8--8--5--5--5--5-|-0--0--0--0--7--7--7--7-|-8--8--8--8--5--5--5--5-|
F |-0--0--0--0--7--7--7--7-|-8--8--8--8--5--5--5--5-|-0--0--0--0--7--7--7--7-|-8--8--8--8--5--5--5--5-|
A#|-0--0--0--0--7--7--7--7-|-8--8--8--8--5--5--5--5-|-0--0--0--0--7--7--7--7-|-8--8--8--8--5--5--5--5-|

Chorus:

C |------------------------------|------------------------------|
G |------------------------------|------------------------------|
D#|------------------------------|------------------------------|
A#|-------0-7-0-8--------0-8-0-7-|-------0-7-0-8--------0-7-8-7-|
F |-0--0----------0-0-0----------|-0--0----------0-0-0----------|
A#|-0--0----------0-0-0----------|-0--0----------0-0-0----------|
    .  .          . . .  . . .     .  .          . . .  . . . 

C |------------------------------|-------------------------------|
G |------------------------------|-------------------------------|
D#|------------------------------|-------------------------------|
A#|-------0-7-0-8--------0-8-0-7-|-------x-0-7-8-----------------|
F |-8--8----------8-8-8----------|-8--8------------3-5---5-3-0-1-|
A#|-8--8----------8-8-8----------|-8--8----------0-----0---------|
    .  .  . . .   . . .  . . .     .  .           

C |------------------------------|------------------------------|
G |------------------------------|------------------------------|
D#|------------------------------|------------------------------|
A#|-------0-7-0-8--------0-8-0-7-|-------0-7-0-8--------0-7-8-7-|
F |-0--0----------0-0-0----------|-0--0----------0-0-0----------|
A#|-0--0----------0-0-0----------|-0--0----------0-0-0----------|
    .  .          . . .  . . .     .  .          . . .  . . . 

C |------------------------------|---------------|
G |------------------------------|---------------|
D#|------------------------------|---------------|
A#|-------0-7-0-8--------0-8-0-7-|-------x-0-7-8-|
F |-8--8----------8-8-8----------|-8--8----------|
A#|-8--8----------8-8-8----------|-8--8----------|
    .  .  . . .   . . .  . . .     .  .           

Refrain:

C |-------------|-------------|-------------|----------------|
G |-------------|-------------|-------------|----------------|
D#|-------------|-------------|-------------|----------------|
A#|-0--0---7--7-|-8--8---5--5-|-0--0---7--7-|-8--8--5--x-x-5-|
F |-0--0---7--7-|-8--8---5--5-|-0--0---7--7-|-8--8--5--x-x-5-|
A#|-0--0---7--7-|-8--8---5--5-|-0--0---7--7-|-8--8--5--x-x-5-|

C |------------------------|------------------------|
G |------------------------|------------------------|
D#|------------------------|------------------------|
A#|-0--0--0--0--7--7--7--7-|-8--8--8--8--5--5--5--5-|
F |-0--0--0--0--7--7--7--7-|-8--8--8--8--5--5--5--5-|
A#|-0--0--0--0--7--7--7--7-|-8--8--8--8--5--5--5--5-|

C |------------------------|------------------------|
G |------------------------|------------------------|
D#|------------------------|------------------------|
A#|-0--0--0--0--7--7--7--7-|-8--8--8--8--8--8--8--8-|
F |-0--0--0--0--7--7--7--7-|-8--8--8--8--8--8--8--8-|
A#|-0--0--0--0--7--7--7--7-|-8--8--8--8--8--8--8--8-|

Bridge:

C |------------------------|------------------------|
G |------------------------|------------------------|
D#|------------------------|------------------------|
A#|-5--5--5--5--5--5--5--5-|-8--8--8--8--8--8--8--8-|
F |-5--5--5--5--5--5--5--5-|-8--8--8--8--8--8--8--8-|
A#|-5--5--5--5--5--5--5--5-|-8--8--8--8--8--8--8--8-|

C |------------------------|------------------------|
G |------------------------|------------------------|
D#|------------------------|------------------------|
A#|-0--0--0--0--0--0--0--0-|-3--3--3--3--3--3--3--3-|
F |-0--0--0--0--0--0--0--0-|-3--3--3--3--3--3--3--3-|
A#|-0--0--0--0--0--0--0--0-|-3--3--3--3--3--3--3--3-|

C |------------------------|------------------------|
G |------------------------|------------------------|
D#|------------------------|------------------------|
A#|-8--8--8--8--8--8--8--8-|-5--5--5--5--5--5--5--5-|
F |-8--8--8--8--8--8--8--8-|-5--5--5--5--5--5--5--5-|
A#|-8--8--8--8--8--8--8--8-|-5--5--5--5--5--5--5--5-|

C |------------------------|------------------------|
G |------------------------|------------------------|
D#|------------------------|------------------------|
A#|-0--0--0--0--0--0--0--0-|-3--3--3--3--3--3--3--3-|
F |-0--0--0--0--0--0--0--0-|-3--3--3--3--3--3--3--3-|
A#|-0--0--0--0--0--0--0--0-|-3--3--3--3--3--3--3--3-|

C |------------------------|-----------|
G |------------------------|-----------|
D#|------------------------|-----------|
A#|-8--8--8--8--8--8--8--8-|-5--5--5-5-|
F |-8--8--8--8--8--8--8--8-|-5--5--5-5-|
A#|-8--8--8--8--8--8--8--8-|-5--5--5-5-|

C |-------------|-------------|
G |-------------|-------------|
D#|-------------|-------------|
A#|-0--0---7--7-|-8--8---5--5-|
F |-0--0---7--7-|-8--8---5--5-|
A#|-0--0---7--7-|-8--8---5--5-|

Refrain:

C |------------------------|------------------------|------------------------|------------------------|
G |------------------------|------------------------|------------------------|------------------------|
D#|------------------------|------------------------|------------------------|------------------------|
A#|-0--0--0--0--7--7--7--7-|-8--8--8--8--5--5--5--5-|-0--0--0--0--7--7--7--7-|-8--8--8--8--5--5--5--5-|
F |-0--0--0--0--7--7--7--7-|-8--8--8--8--5--5--5--5-|-0--0--0--0--7--7--7--7-|-8--8--8--8--5--5--5--5-|
A#|-0--0--0--0--7--7--7--7-|-8--8--8--8--5--5--5--5-|-0--0--0--0--7--7--7--7-|-8--8--8--8--5--5--5--5-|

C |------------------------|------------------------|------------------------|------------------------|
G |------------------------|------------------------|------------------------|------------------------|
D#|------------------------|------------------------|------------------------|------------------------|
A#|-0--0--0--0--7--7--7--7-|-8--8--8--8--5--5--5--5-|-0--0--0--0--7--7--7--7-|-8--8--8--8--5--5--5--5-|
F |-0--0--0--0--7--7--7--7-|-8--8--8--8--5--5--5--5-|-0--0--0--0--7--7--7--7-|-8--8--8--8--5--5--5--5-|
A#|-0--0--0--0--7--7--7--7-|-8--8--8--8--5--5--5--5-|-0--0--0--0--7--7--7--7-|-8--8--8--8--5--5--5--5-|

C |------------------------|------------------------|------------------------|------------|
G |------------------------|------------------------|------------------------|------------|
D#|------------------------|------------------------|------------------------|------------|
A#|-0--0--0--0--7--7--7--7-|-8--8--8--8--5--5--5--5-|-0--0--0--0--7--7--7--7-|-8--8--8--8-|
F |-0--0--0--0--7--7--7--7-|-8--8--8--8--5--5--5--5-|-0--0--0--0--7--7--7--7-|-8--8--8--8-|
A#|-0--0--0--0--7--7--7--7-|-8--8--8--8--5--5--5--5-|-0--0--0--0--7--7--7--7-|-8--8--8--8-|

Guitar 1 + 2 (on record)

C |-------------|-------------|-------------|-------------------|
G |-------------|-------------|-------------|-------------------|
D#|-------------|-------------|-------------|-------------------|
A#|-0--0---0--0-|-0--0---0--0-|-8--8---8--8-|-8--8---7--7--7--7-|
F |-0--0---0--0-|-0--0---0--0-|-8--8---8--8-|-8--8---7--7--7--7-|
A#|-0--0---0--0-|-0--0---0--0-|-8--8---8--8-|-8--8---7--7--7--7-|

Guitar 2 (at live shows)

C |-17----17----17-18-17----17----17-18-17----17----17-18-19----18----|
G |----15----15----------15----15----------15----15----------15----15-|
D#|-------------------------------------------------------------------|
A#|-------------------------------------------------------------------|
F |-------------------------------------------------------------------|
A#|-------------------------------------------------------------------|

C |-17----17----17-18-17----17----17-18-17----17----17-18-17----15----|
G |----15----15----------15----15----------15----15----------15----15-|
D#|-------------------------------------------------------------------|
A#|-------------------------------------------------------------------|
F |-------------------------------------------------------------------|
A#|-------------------------------------------------------------------|

Guitar 1

C |----------------|----------------|----------------|-------------------|
G |----------------|----------------|----------------|-------------------|
D#|-------x-10--10-|-------x-10--10-|-------x-10--10-|-------12-12-12-12-|
A#|-0--0-----------|-0--0-----------|-0--0-----------|-0--0--------------|
F |-0--0--x-8---8--|-0--0--x-8---8--|-0--0--x-8---8--|-0--0--10-10-10-10-|
A#|-0--0-----------|-0--0-----------|-0--0-----------|-0--0--------------|

C |----------------|----------------|--------------|-----------------|
G |----------------|----------------|--------------|-----------------|
D#|-------x-10--10-|-------x-10--10-|-------x-9--9-|-----------------|
A#|-8--8-----------|-8--8-----------|-7--7---------|-8--3--5--8--0-0-|
F |-8--8--x-8---8--|-8--8--x-8---8--|-7--7--x-7--7-|-8--3--5--8--0-0-|
A#|-8--8-----------|-8--8-----------|-7--7---------|-8--3--5--8--0-0-|

Guitar 2 (at live shows)

C |-17----17----17-18-17----17----17-18-17----17----17-18-20----18----|
G |----15----15----------15----15----------15----15----------15----15-|
D#|-------------------------------------------------------------------|
A#|-------------------------------------------------------------------|
F |-------------------------------------------------------------------|
A#|-------------------------------------------------------------------|

C |-17----17----17-18-17----17----17-18-17----17----17-18-17----15----|-----|
G |----15----15----------15----15----------15----15----------15----15-|-----|
D#|-------------------------------------------------------------------|-----|
A#|-------------------------------------------------------------------|-0-0-|
F |-------------------------------------------------------------------|-0-0-|
A#|-------------------------------------------------------------------|-0-0-|

Guitar 2 (on record)

C |----------------|----------------|----------------|-------------------|
G |-------x-10--10-|-------x-10--10-|-------x-10--10-|-------11-11-11-11-|
D#|----------------|----------------|----------------|-------------------|
A#|-0--0--x-7---7--|-0--0--x-7---7--|-0--0--x-7---7--|-0--0--8--8--8--8--|
F |-0--0-----------|-0--0-----------|-0--0-----------|-0--0--------------|
A#|-0--0-----------|-0--0-----------|-0--0-----------|-0--0--------------|

C |----------------|----------------|--------------|-----------------|
G |-------x-10--10-|-------x-10--10-|-------x-8--8-|-----------------|
D#|----------------|----------------|--------------|-----------------|
A#|-8--8--x-7---7--|-8--8--x-7---7--|-7--7--x-5--5-|-8--3--5--8--0-0-|
F |-8--8-----------|-8--8-----------|-7--7---------|-8--3--5--8--0-0-|
A#|-8--8-----------|-8--8-----------|-7--7---------|-8--3--5--8--0-0-|

            
Submit corrections


        Voices lessons Hard to play? Try these video lessons and learn fast Voices lessons
        
↑ Back to top | Tablatures and chords for acoustic guitar and electric guitar, ukulele, drums are parodies/interpretations of the original songs. You may use it for private study, scholarship, research or language learning purposes only