» » »

Motionless In White - Undead Ahead 2 The Tale Of The Midnight Ride Tabs

Artists:  A B C D E F G H I J K L M N O P Q R S T U V W X Y Z # 

Undead Ahead 2 The Tale Of The Midnight Ride Tabs

(ver. 1) Click to play this song!
Motionless In White
 Rating:
4.3/5 (25 votes)

 Undead Ahead 2 The Tale Of The Midnight Ride lessons Tabs too difficult? Try these video lessons and learn fast
 
                [Intro]

B |---------------------------------------------------------------------------|
F#|---------------------------------------------------------------------------|
D |---------------------------------------------------------------------------|
A |---------------------------------------------------------------------------|
E |---------------------------------------------------------------------------|
A |-0-0----0-0----0-0----0000---0-0----0-0----0-0----0-0-1--------------------|

B |---------------------------------------------------------------------------|
F#|---------------------------------------------------------------------------|
D |---------------------------------------------------------------------------|
A |---------------------------------------------------------------------------|
E |---------------------------------------------------------------------------|
A |-0-0----0-0----0-0----0000---0-0----0-0----0-0----0-0-1--------------------|

B |---------------------------------------------------------------------------|
F#|---------------------------------------------------------------------------|
D |---------------------------------------------------------------------------|
A |---------------------------------------------------------------------------|
E |---------------------------------------------------------------------------|
A |-0-0----0-0----0-0----0000---0-0----0-0----0-0----0-0-1--------------------|

B |---------------------------------------------------------------------------|
F#|---------------------------------------------------------------------------|
D |---------------------------------------------------------------------------|
A |---------------------------------------------------------------------------|
E |---------------------------------------------------------------------------|
A |-0-0----0-0----0-0----0000---0-0----0-0----0-0----0-0-1--------------------|


[Verse]

B |---------------------------------------------------------------------------|
F#|---------------------------------------------------------------------------|
D |---------------------------------------------------------------------------|
A |---------------------------------------------------------------------------|
E |---------------------------------------------------------------------------|
A |--5-3-2-0-0---0-0-0---0-0-0--00--------------------------------------------|

B |---------------------------------------------------------------------------|
F#|---------------------------------------------------------------------------|
D |---------------------------------------------------------------------------|
A |---------------------------------------------------------------------------|
E |---------------------------------------------------------------------------|
A |--5-3-2-0-0---0-0-0---0-0-0--00--------------------------------------------|

B |---------------------------------------------------------------------------|
F#|---------------------------------------------------------------------------|
D |---------------------------------------------------------------------------|
A |-13-12-0-0-11-12-----------------------------------------------------------|
E |-13-12-0-0-11-12-----------------------------------------------------------|
A |-13-12-0-0-11-12-----------------------------------------------------------|

B |---------------------------------------------------------------------------|
F#|---------------------------------------------------------------------------|
D |---------------------------------------------------------------------------|
A |---------------------------------------------------------------------------|
E |---------------------------------------------------------------------------|
A |--5-3-2-0-0---0-0-0---0-0-0--00--------------------------------------------|

B |---------------------------------------------------------------------------|
F#|---------------------------------------------------------------------------|
D |---------------------------------------------------------------------------|
A |---------------------------------------------------------------------------|
E |---------------------------------------------------------------------------|
A |--5-3-2-0-0---0-0-0---0-0-0--00--------------------------------------------|

B |---------------------------------------------------------------------------|
F#|---------------------------------------------------------------------------|
D |---------------------------------------------------------------------------|
A |-13-12-0-0-11-12-----------------------------------------------------------|
E |-13-12-0-0-11-12-----------------------------------------------------------|
A |-13-12-0-0-11-12-----------------------------------------------------------|


[Bridge]

B |---------------------------------------------------------------------------|
F#|---------------------------------------------------------------------------|
D |---------------------------------------------------------------------------|
A |-12-12-12-0-0-11-11-11-0-0-12-12-12-13-13-13-12-11-10-11-12----------------|
E |-12-12-12-0-0-11-11-11-0-0-12-12-12-13-13-13-12-11-10-11-12----------------|
A |-12-12-12-0-0-11-11-11-0-0-12-12-12-13-13-13-12-11-10-11-12----------------|

B |---------------------------------------------------------------------------|
F#|---------------------------------------------------------------------------|
D |---------------------------------------------------------------------------|
A |-12-12-12-0-0-11-11-11-0-0-12-12-12-13-13-13-12-11-10-11-12----------------|
E |-12-12-12-0-0-11-11-11-0-0-12-12-12-13-13-13-12-11-10-11-12----------------|
A |-12-12-12-0-0-11-11-11-0-0-12-12-12-13-13-13-12-11-10-11-12----------------|

B |---------------------------------------------------------------------------|
F#|---------------------------------------------------------------------------|
D |---------------------------------------------------------------------------|
A |-12-12-12-12-12-12-12-12---------------------------------------------------|
E |-12-12-12-12-12-12-12-12---------------------------------------------------|
A |-12-12-12-12-12-12-12-12---------------------------------------------------|


[Chorus]

B |---------------------------------------------------------------------------|
F#|------------------8--------------------------------------------------------|
D |-----10-----9-----------10-----9-10----------------------------------------|
A |-8-8----8-8---8-8---8-8----8-8---------------------------------------------|
E |---------------------------------------------------------------------------|
A |---------------------------------------------------------------------------|

B |---------------------------------------------------------------------------|
F#|---------------------------------------------------------------------------|
D |-------10-------9--------12-------10------9-10-----------------------------|
A |---------------------------------------------------------------------------|
E |-10-10----10-10---10-10-----10-10---10-10----------------------------------|
A |---------------------------------------------------------------------------|

B |---------------------------------------------------------------------------|
F#|---------------------------------------------------------------------------|
D |-----10-----9--------------------------------------------------------------|
A |-0-0----0-0---0-0-10-0-0-10-0-0-10-12--------------------------------------|
E |---------------------------------------------------------------------------|
A |---------------------------------------------------------------------------|

B |---------------------------------------------------------------------------|
F#|---------------------------------------------------------------------------|
D |-------10------9----9------------------------------------------------------|
A |-10-10---10-10---10---10---------------------------------------------------|
E |---------------------------------------------------------------------------|
A |---------------------------------------------------------------------------|
  

[Verse]

B |---------------------------------------------------------------------------|
F#|---------------------------------------------------------------------------|
D |---------------------------------------------------------------------------|
A |---------------------------------------------------------------------------|
E |---------------------------------------------------------------------------|
A |-000--000--000--000--000--000--000-----------------------------------------|

B |---------------------------------------------------------------------------|
F#|---------------------------------------------------------------------------|
D |---------------------------------------------------------------------------|
A |---------------------------------------------------------------------------|
E |---------------------------------------------------------------------------|
A |-000-5-3-2-000-000-000-13-12-0-0-12-11-------------------------------------|

B |---------------------------------------------------------------------------|
F#|---------------------------------------------------------------------------|
D |---------------------------------------------------------------------------|
A |---------------------------------------------------------------------------|
E |---------------------------------------------------------------------------|
A |-000--000--000--000--000--000--000-----------------------------------------|

B |---------------------------------------------------------------------------|
F#|---------------------------------------------------------------------------|
D |---------------------------------------------------------------------------|
A |---------------------------------------------------------------------------|
E |---------------------------------------------------------------------------|
A |-000-5-3-2-000-000-000-13-12-0-0-12-11-------------------------------------|


[Bridge]

B |---------------------------------------------------------------------------|
F#|---------------------------------------------------------------------------|
D |---------------------------------------------------------------------------|
A |-12-12-12-0-0-11-11-11-0-0-12-12-12-13-13-13-12-11-10-11-12----------------|
E |-12-12-12-0-0-11-11-11-0-0-12-12-12-13-13-13-12-11-10-11-12----------------|
A |-12-12-12-0-0-11-11-11-0-0-12-12-12-13-13-13-12-11-10-11-12----------------|

B |---------------------------------------------------------------------------|
F#|---------------------------------------------------------------------------|
D |---------------------------------------------------------------------------|
A |-12-12-12-0-0-11-11-11-0-0-12-12-12-13-13-13-12-11-10-11-12----------------|
E |-12-12-12-0-0-11-11-11-0-0-12-12-12-13-13-13-12-11-10-11-12----------------|
A |-12-12-12-0-0-11-11-11-0-0-12-12-12-13-13-13-12-11-10-11-12----------------|

B |---------------------------------------------------------------------------|
F#|---------------------------------------------------------------------------|
D |---------------------------------------------------------------------------|
A |-12-12-12-12-12-12-12-12---------------------------------------------------|
E |-12-12-12-12-12-12-12-12---------------------------------------------------|
A |-12-12-12-12-12-12-12-12---------------------------------------------------|


[Breakdown]

(Just listen for the rhythm if this isn't totally correct)
B |---------------------------------------------------------------------------|
F#|---------------------------------------------------------------------------|
D |---------------------------------------------------------------------------|
A |-0000000--0000000-0-0-000000-0-0-0-0---------------------------------------|
E |-0000000--0000000-0-0-000000-0-0-0-0---------------------------------------|
A |-0000000--0000000-0-0-000000-0-0-0-0---------------------------------------|

B |---------------------------------------------------------------------------|
F#|---------------------------------------------------------------------------|
D |---------------------------------------------------------------------------|
A |-0000000--0000000-0-0-000000-0-0-0-0---------------------------------------|
E |-0000000--0000000-0-0-000000-0-0-0-0---------------------------------------|
A |-0000000--0000000-0-0-000000-0-0-0-0---------------------------------------|


[Extended Chorus]

B |---------------------------------------------------------------------------|
F#|------------------8--------------------------------------------------------|
D |-----10-----9-----------10-----9-10----------------------------------------|
A |-8-8----8-8---8-8---8-8----8-8---------------------------------------------|
E |---------------------------------------------------------------------------|
A |---------------------------------------------------------------------------|

B |---------------------------------------------------------------------------|
F#|---------------------------------------------------------------------------|
D |-------10-------9--------12-------10------9-10-----------------------------|
A |---------------------------------------------------------------------------|
E |-10-10----10-10---10-10-----10-10---10-10----------------------------------|
A |---------------------------------------------------------------------------|

B |---------------------------------------------------------------------------|
F#|---------------------------------------------------------------------------|
D |-----10-----9--------------------------------------------------------------|
A |-0-0----0-0---0-0-10-0-0-10-0-0-10-12--------------------------------------|
E |---------------------------------------------------------------------------|
A |---------------------------------------------------------------------------|

B |---------------------------------------------------------------------------|
F#|---------------------------------------------------------------------------|
D |-------10------9----9------------------------------------------------------|
A |-10-10---10-10---10---10---------------------------------------------------|
E |---------------------------------------------------------------------------|
A |---------------------------------------------------------------------------|

B |---------------------------------------------------------------------------|
F#|------------------8--------------------------------------------------------|
D |-----10-----9-----------10-----9-10----------------------------------------|
A |-8-8----8-8---8-8---8-8----8-8---------------------------------------------|
E |---------------------------------------------------------------------------|
A |---------------------------------------------------------------------------|

B |---------------------------------------------------------------------------|
F#|---------------------------------------------------------------------------|
D |-------10-------9--------12-------10------9-10-----------------------------|
A |---------------------------------------------------------------------------|
E |-10-10----10-10---10-10-----10-10---10-10----------------------------------|
A |---------------------------------------------------------------------------|

B |---------------------------------------------------------------------------|
F#|---------------------------------------------------------------------------|
D |-----10-----9--------------------------------------------------------------|
A |-0-0----0-0---0-0-10-0-0-10-0-0-10-12--------------------------------------|
E |---------------------------------------------------------------------------|
A |---------------------------------------------------------------------------|

B |---------------------------------------------------------------------------|
F#|---------------------------------------------------------------------------|
D |-------10------9----9------------------------------------------------------|
A |-10-10---10-10---10---10---------------------------------------------------|
E |---------------------------------------------------------------------------|
A |---------------------------------------------------------------------------|

B |---------------------------------------------------------------------------|
F#|------------------8--------------------------------------------------------|
D |-----10-----9-----------10-----9-10----------------------------------------|
A |-8-8----8-8---8-8---8-8----8-8---------------------------------------------|
E |---------------------------------------------------------------------------|
A |---------------------------------------------------------------------------|

B |---------------------------------------------------------------------------|
F#|---------------------------------------------------------------------------|
D |-------10-------9--------12-------10------9-10-----------------------------|
A |---------------------------------------------------------------------------|
E |-10-10----10-10---10-10-----10-10---10-10----------------------------------|
A |---------------------------------------------------------------------------|

B |---------------------------------------------------------------------------|
F#|---------------------------------------------------------------------------|
D |-----10-----9--------------------------------------------------------------|
A |-0-0----0-0---0-0-10-0-0-10-0-0-10-12--------------------------------------|
E |---------------------------------------------------------------------------|
A |---------------------------------------------------------------------------|

B |---------------------------------------------------------------------------|
F#|---------------------------------------------------------------------------|
D |-------10------9----9------------------------------------------------------|
A |-10-10---10-10---10---10---------------------------------------------------|
E |---------------------------------------------------------------------------|
A |---------------------------------------------------------------------------|


[Outro]

B |---------------------------------------------------------------------------|
F#|---------------------------------------------------------------------------|
D |---------------------------------------------------------------------------|
A |----------------------------------------------------------7-8--------------|
E |----------------------------------------------------------7-8--------------|
A |-0-0----0-0----0-0----0000---0-0----0-0----0-0----0-0-1---7-8--------------|

B |---------------------------------------------------------------------------|
F#|---------------------------------------------------------------------------|
D |---------------------------------------------------------------------------|
A |-7-8-----------------------------------------------------------------------|
E |-7-8-----------------------------------------------------------------------|
A |-7-8-----------------------------------------------------------------------|
            
Submit corrections


        Undead Ahead 2 The Tale Of The Midnight Ride lessons Hard to play? Try these video lessons and learn fast Undead Ahead 2 The Tale Of The Midnight Ride lessons
        
↑ Back to top | Tablatures and chords for acoustic guitar and electric guitar, ukulele, drums are parodies/interpretations of the original songs. You may use it for private study, scholarship, research or language learning purposes only