» » »

Motionless In White - Infamous Tabs

Artists:  A B C D E F G H I J K L M N O P Q R S T U V W X Y Z # 

Infamous Tabs

(ver. 1) Click to play this song!
Motionless In White
 Rating:
4/5 (4 votes)

 Infamous lessons Tabs too difficult? Try these video lessons and learn fast
 
                Was looking for a tab of this song, couldn't find one, so here's mine. I figured it out
as tabs on this site SHOULD BE. Anyways, if you have a question, correction, or comment 


Tuning: Drop C



Intro: 2x
D|-------------------------------------------------------------------------|
A|-------------------------------------------------------------------------|
F|-------------------------------------------------------------------------|
C|-1-0--0-1-0--0-1-0--0-1-0--0-1-0-6b--1-0--0-1-0--0-1-0--0-1-0--0-1-0-11v-|
G|-1-0--0-1-0--0-1-0--0-1-0--0-1-0-----1-0--0-1-0--0-1-0--0-1-0--0-1-0-----|
C|-1-0--0-1-0--0-1-0--0-1-0--0-1-0-----1-0--0-1-0--0-1-0--0-1-0--0-1-0-----|
        .      .      .      .              .      .      .      .

Verse: No guitar for a couple measures then:
|----------------------|
|----------------------|
|-7v~~-----------------|
|------7v~~-7b8~~------|
|-----------------8v~~-|
|----------------------|

Chorus: 2x
Guitar 1:
|-------------------------------------------------------------------------|
|-------------------------------------------------------------------------|
|-------------------------------------------------------------------------|
|-------------------------------------------------------------------------|
|----------1111------0000000000000000----------1111------0000000000000000-|
|-00000000------3333------------------00000000------3333------------------|

Guitar 2:
|-------------------------------------------------------------------------|
|-------------------------------------------------------------------------|
|-------------------------------------------------------------------------|
|-------------------------------------------------------------------------|
|----------4444-0000-1111111111111111----------4444-0000-0000000000000000-|
|-00000000----------------------------00000000----------------------------|

Repeat Intro

Post-Chorus: (Not actually guitar just thought I'd throw it in)
|-13---------------------13----------------------|
|----16-15--15h16-13v~~-----16-15-15-15h16-13v~~-|
|------------------------------------------------|
|------------------------------------------------| (continued below)
|------------------------------------------------|
|------------------------------------------------|

|-13---------------------13----------|
|----16-15--15h16-13v~~-----16-15-15-|
|------------------------------------|
|------------------------------------|
|------------------------------------|
|------------------------------------|

Silent Verse

Repeat Chorus

Repeat Intro

Repeat Post-Chorus 2x

Repeat Chorus

Repeat Intro

Outro: (either the full chord or strum the low C alone)
|---------------|
|---------------|
|---------------|
|-0~~~~~~~~~~~~-|
|-0~~~~~~~~~~~~-|
|-0~~~~~~~~~~~~-|
            
Submit corrections


        Infamous lessons Hard to play? Try these video lessons and learn fast Infamous lessons
        
↑ Back to top | Tablatures and chords for acoustic guitar and electric guitar, ukulele, drums are parodies/interpretations of the original songs. You may use it for private study, scholarship, research or language learning purposes only