» » »

Motionless In White - If Its Dead Well Kill It Tabs

Artists:  A B C D E F G H I J K L M N O P Q R S T U V W X Y Z # 

If Its Dead Well Kill It Tabs

(ver. 1) Click to play this song!
Motionless In White
 Rating:
4.3/5 (16 votes)

 If Its Dead Well Kill It lessons Tabs too difficult? Try these video lessons and learn fast
 
                [Intro]

C#|---------------------------------------------------------------------------|
G#|---------------------------------------------------------------------------|
E |---------------------------------------------------------------------------|
B |-5-5-5-5-5-5-4-4-4-4-4-4-5-5-5-5-5-5-1-1-0-0-1-1---------------------------|
F#|-5-5-5-5-5-5-4-4-4-4-4-4-5-5-5-5-5-5-1-1-0-0-1-1---------------------------|
B |-5-5-5-5-5-5-4-4-4-4-4-4-5-5-5-5-5-5-1-1-0-0-1-1---------------------------|


C#|---------------------------------------------------------------------------|
G#|---------------------------------------------------------------------------|
E |---------------------------------------------------------------------------|
B |-5-5-5-5-5-5-4-4-4-4-4-4-5-5-5-5-5-5-8-8-7-7-4-4---------------------------|
F#|-5-5-5-5-5-5-4-4-4-4-4-4-5-5-5-5-5-5-8-8-7-7-4-4---------------------------|
B |-5-5-5-5-5-5-4-4-4-4-4-4-5-5-5-5-5-5-8-8-7-7-4-4---------------------------|

C#|---------------------------------------------------------------------------|
G#|---------------------------------------------------------------------------|
E |---------------------------------------------------------------------------|
B |-5-5-5-5-5-5-4-4-4-4-4-4-5-5-5-5-5-5-1-1-0-0-1-1---------------------------|
F#|-5-5-5-5-5-5-4-4-4-4-4-4-5-5-5-5-5-5-1-1-0-0-1-1---------------------------|
B |-5-5-5-5-5-5-4-4-4-4-4-4-5-5-5-5-5-5-1-1-0-0-1-1---------------------------|

C#|---------------------------------------------------------------------------|
G#|---------------------------------------------------------------------------|
E |---------------------------------------------------------------------------|
B |-5-5-5-5-5-5-4-4-4-4-4-4-8-8-7-7-4-4-8-8-7-7-4-4---------------------------|
F#|-5-5-5-5-5-5-4-4-4-4-4-4-8-8-7-7-4-4-8-8-7-7-4-4---------------------------|
B |-5-5-5-5-5-5-4-4-4-4-4-4-8-8-7-7-4-4-8-8-7-7-4-4---------------------------|


[Verse 1]

C#|---------------------------------------|
G#|---------------------------------------|
E |---------------------------------------|
B |-5--555--5--555--5--555--8-8-8-8-8-8---|
F#|-5--555--5--555--5--555--8-8-8-8-8-8---|
B |-5--555--5--555--5--555--8-8-8-8-8-8---|


C#|---------------------------------------|
G#|---------------------------------------|
E |---------------------------------------|
B |-1--111--1--111-0--000--4-4-4-4-4-4----|
F#|-1--111--1--111-0--000--4-4-4-4-4-4----|
B |-1--111--1--111-0--000--4-4-4-4-4-4----|


C#|---------------------------------------|
G#|---------------------------------------|
E |---------------------------------------|
B |-5--555--5--555--5--555--8-8-8-8-8-8---|
F#|-5--555--5--555--5--555--8-8-8-8-8-8---|
B |-5--555--5--555--5--555--8-8-8-8-8-8---|


C#|---------------------------------------|
G#|---------------------------------------|
E |---------------------------------------|
B |1--1111--1--1111--2-1-0-1-0------------|
F#|1--1111--1--1111--2-1-0-1-0------------|
B |1--1111--1--1111--2-1-0-1-0------------|


C#|---------------------------------------------------------------------------|
G#|---------------------------------------------------------------------------|
E |---------------------------------------------------------------------------|
B |-000-000-000-1-000-000-000-4-000-000-000-1---------------------------------|
F#|-000-000-000-1-000-000-000-4-000-000-000-1---------8h7-5p0-----------------|
B |-000-000-000-1-000-000-000-4-000-000-000-1-5h8-5h8-------------------------|

C#|---------------------------------------------------------------------------|
G#|---------------------------------------------------------------------------|
E |---------------------------------------------------------------------------|
B |-000-000-000-1-000-000-000-4-000-000-000-1---------------------------------|
F#|-000-000-000-1-000-000-000-4-000-000-000-1-8p7-5p0-------------------------|
B |-000-000-000-1-000-000-000-4-000-000-000-1---------8p7-5p0-----------------|

C#|---------------------------------------------------------------------------|
G#|---------------------------------------------------------------------------|
E |---------------------------------------------------------------------------|
B |-000-000-1--000-000-4--000-000-1-------------------------------------------|
F#|-000-000-1--000-000-4--000-000-1---------8h7-5p0---------------------------|
B |-000-000-1--000-000-4--000-000-1-5h8-5h8-----------------------------------|

C#|---------------------------------------------------------------------------|
G#|---------------------------------------------------------------------------|
E |---------------------------------------------------------------------------|
B |-000-000-1--000-000-4-000-000-1--------------------------------------------|
F#|-000-000-1--000-000-4-000-000-1-8p7-5p0------------------------------------|
B |-000-000-1--000-000-4-000-000-1---------8p7-5p0----------------------------|

[Chorus]

C#|---------------------------------------------------------------------------------|
G#|---------------------------------------------------------------------------------|
E |---------------------------------------------------------------------------------|
B |-5-5-5-5-5-5-5-5-1-1-1-1-1-1-1-1-10-10-10-10-10-10-10-10-12-12-12-12-12-12-12-12-|
F#|-5-5-5-5-5-5-5-5-1-1-1-1-1-1-1-1-10-10-10-10-10-10-10-10-12-12-12-12-12-12-12-12-|
B |-5-5-5-5-5-5-5-5-1-1-1-1-1-1-1-1-10-10-10-10-10-10-10-10-12-12-12-12-12-12-12-12-|

C#|---------------------------------------------------------------------------------|
G#|---------------------------------------------------------------------------------|
E |---------------------------------------------------------------------------------|
B |-5-5-5-5-5-5-5-5-1-1-1-1-1-1-1-1-10-10-10-10-10-10-10-10-12-12-12-12-12-12-12-12-|
F#|-5-5-5-5-5-5-5-5-1-1-1-1-1-1-1-1-10-10-10-10-10-10-10-10-12-12-12-12-12-12-12-12-|
B |-5-5-5-5-5-5-5-5-1-1-1-1-1-1-1-1-10-10-10-10-10-10-10-10-12-12-12-12-12-12-12-12-|

[Intro]


C#|---------------------------------------------------------------------------|
G#|---------------------------------------------------------------------------|
E |---------------------------------------------------------------------------|
B |-5-5-5-5-5-5-4-4-4-4-4-4-5-5-5-5-5-5-1-1-0-0-1-1---------------------------|
F#|-5-5-5-5-5-5-4-4-4-4-4-4-5-5-5-5-5-5-1-1-0-0-1-1---------------------------|
B |-5-5-5-5-5-5-4-4-4-4-4-4-5-5-5-5-5-5-1-1-0-0-1-1---------------------------|


C#|---------------------------------------------------------------------------|
G#|---------------------------------------------------------------------------|
E |---------------------------------------------------------------------------|
B |-5-5-5-5-5-5-4-4-4-4-4-4-5-5-5-5-5-5-8-8-7-7-4-4---------------------------|
F#|-5-5-5-5-5-5-4-4-4-4-4-4-5-5-5-5-5-5-8-8-7-7-4-4---------------------------|
B |-5-5-5-5-5-5-4-4-4-4-4-4-5-5-5-5-5-5-8-8-7-7-4-4---------------------------|

C#|---------------------------------------------------------------------------|
G#|---------------------------------------------------------------------------|
E |---------------------------------------------------------------------------|
B |-5-5-5-5-5-5-4-4-4-4-4-4-5-5-5-5-5-5-1-1-0-0-1-1---------------------------|
F#|-5-5-5-5-5-5-4-4-4-4-4-4-5-5-5-5-5-5-1-1-0-0-1-1---------------------------|
B |-5-5-5-5-5-5-4-4-4-4-4-4-5-5-5-5-5-5-1-1-0-0-1-1---------------------------|

C#|---------------------------------------------------------------------------|
G#|---------------------------------------------------------------------------|
E |---------------------------------------------------------------------------|
B |-5-5-5-5-5-5-4-4-4-4-4-4-8-8-7-7-4-4-8-8-7-7-4-4---------------------------|
F#|-5-5-5-5-5-5-4-4-4-4-4-4-8-8-7-7-4-4-8-8-7-7-4-4---------------------------|
B |-5-5-5-5-5-5-4-4-4-4-4-4-8-8-7-7-4-4-8-8-7-7-4-4---------------------------|

[Verse]

C#|---------------------------------------------------------------------------|
G#|---------------------------------------------------------------------------|
E |---------------------------------------------------------------------------|
B |-000-000-000-1-000-000-000-4-000-000-000-1---------------------------------|
F#|-000-000-000-1-000-000-000-4-000-000-000-1---------8h7-5p0-----------------|
B |-000-000-000-1-000-000-000-4-000-000-000-1-5h8-5h8-------------------------|

C#|---------------------------------------------------------------------------|
G#|---------------------------------------------------------------------------|
E |---------------------------------------------------------------------------|
B |-000-000-000-1-000-000-000-4-000-000-000-1---------------------------------|
F#|-000-000-000-1-000-000-000-4-000-000-000-1-8p7-5p0-------------------------|
B |-000-000-000-1-000-000-000-4-000-000-000-1---------8p7-5p0-----------------|

C#|---------------------------------------------------------------------------|
G#|---------------------------------------------------------------------------|
E |---------------------------------------------------------------------------|
B |-000-000-1--000-000-4--000-000-1-------------------------------------------|
F#|-000-000-1--000-000-4--000-000-1---------8h7-5p0---------------------------|
B |-000-000-1--000-000-4--000-000-1-5h8-5h8-----------------------------------|

C#|---------------------------------------------------------------------------|
G#|---------------------------------------------------------------------------|
E |---------------------------------------------------------------------------|
B |-000-000-1--000-000-4-000-000-1--------------------------------------------|
F#|-000-000-1--000-000-4-000-000-1-8p7-5p0------------------------------------|
B |-000-000-1--000-000-4-000-000-1---------8p7-5p0----------------------------|

"f**k you, f**k this, everything is in distress..."

C#|---------------------------------------------------------------------------|
G#|---------------------------------------------------------------------------|
E |---------------------------------------------------------------------------|
B |---------------------------------------------------------------------------|
F#|-------------1-3-----------------------------1-3---------------------------|
B |-1-0-1-0-1-0-----1-0-1-0-1-0-4-1-1-0-1-0-1-0-----1-0-1-0-1-0-4-1-----------|

C#|---------------------------------------------------------------------------|
G#|---------------------------------------------------------------------------|
E |---------------------------------------------------------------------------|
B |---------------------------------------------------------------------------|
F#|-------------1-3-----------------------------1-3---------------------------|
B |-1-0-1-0-1-0-----1-0-1-0-1-0-4-1-1-0-1-0-1-0-----1-0-1-0-1-0-4-1-----------|

[Breakdown] 

C#|---------------------------------------------------------------------------|
G#|---------------------------------------------------------------------------|
E |---------------------------------------------------------------------------|
B |-111-111-111-111----111-111-111-111----------------------------------------|
F#|-111-111-111-111----111-111-111-111----------------------------------------|
B |-111-111-111-111----111-111-111-111----------------------------------------|

"I have come to crush you..."

C#|---------------------------------------------------------------------------|
G#|---------------------------------------------------------------------------|
E |---------------------------------------------------------------------------|
B |-1-1-1-1----1-1-1-1--------------------------------------------------------|
F#|-1-1-1-1----1-1-1-1----------8p7-5p0---------------------------------------|
B |-1-1-1-1----1-1-1-1-5h8-5h8------------------------------------------------|

C#|---------------------------------------------------------------------------|
G#|---------------------------------------------------------------------------|
E |---------------------------------------------------------------------------|
B |-1-1-1-1----1-1-1-1--------------------------------------------------------|
F#|-1-1-1-1----1-1-1-1-8p7-5p0------------------------------------------------|
B |-1-1-1-1----1-1-1-1----------8p7-5p0---------------------------------------|

C#|---------------------------------------------------------------------------|
G#|---------------------------------------------------------------------------|
E |---------------------------------------------------------------------------|
B |-1-1-1-1----1-1-1-1--------------------------------------------------------|
F#|-1-1-1-1----1-1-1-1----------8p7-5p0---------------------------------------|
B |-1-1-1-1----1-1-1-1-5h8-5h8------------------------------------------------|

C#|---------------------------------------------------------------------------|
G#|---------------------------------------------------------------------------|
E |---------------------------------------------------------------------------|
B |-1-1-1-1----1-1-1-1--------------------------------------------------------|
F#|-1-1-1-1----1-1-1-1-8p7-5p0------------------------------------------------|
B |-1-1-1-1----1-1-1-1----------8p7-5p0---------------------------------------|

C#|---------------------------------------------------------------------------|
G#|---------------------------------------------------------------------------|
E |---------------------------------------------------------------------------|
B |-0-0-0-0----0-0-0-0--------------------------------------------------------|
F#|-0-0-0-0----0-0-0-0----------8p7-5p0---------------------------------------|
B |-0-0-0-0----0-0-0-0-5h8-5h8------------------------------------------------|

C#|---------------------------------------------------------------------------|
G#|---------------------------------------------------------------------------|
E |---------------------------------------------------------------------------|
B |-0-0-0-0----0-0-0-0--------------------------------------------------------|
F#|-0-0-0-0----0-0-0-0-8p7-5p0------------------------------------------------|
B |-0-0-0-0----0-0-0-0----------8p7-5p0---------------------------------------|

[Bridge]

C#|---------------------------------------------------------------------------|
G#|---------------------------------------------------------------------------|
E |-8-----7-----7---8-----7-----7---------------------------------------------|
B |---5-5---5-5---5---5-5---5-5---5-------------------------------------------|
F#|---------------------------------------------------------------------------|
B |---------------------------------------------------------------------------|

C#|---------------------------------------------------------------------------|
G#|---------------------------------------------------------------------------|
E |-8-----7-----7---8-----7-----7---------------------------------------------|
B |---5-5---5-5---5---5-5---5-5---5-------------------------------------------|
F#|---------------------------------------------------------------------------|
B |---------------------------------------------------------------------------|

[Chorus]

C#|---------------------------------------------------------------------------------|
G#|---------------------------------------------------------------------------------|
E |---------------------------------------------------------------------------------|
B |-5-5-5-5-5-5-5-5-1-1-1-1-1-1-1-1-10-10-10-10-10-10-10-10-12-12-12-12-12-12-12-12-|
F#|-5-5-5-5-5-5-5-5-1-1-1-1-1-1-1-1-10-10-10-10-10-10-10-10-12-12-12-12-12-12-12-12-|
B |-5-5-5-5-5-5-5-5-1-1-1-1-1-1-1-1-10-10-10-10-10-10-10-10-12-12-12-12-12-12-12-12-|

C#|---------------------------------------------------------------------------------|
G#|---------------------------------------------------------------------------------|
E |---------------------------------------------------------------------------------|
B |-5-5-5-5-5-5-5-5-1-1-1-1-1-1-1-1-10-10-10-10-10-10-10-10-12-12-12-12-12-12-12-12-|
F#|-5-5-5-5-5-5-5-5-1-1-1-1-1-1-1-1-10-10-10-10-10-10-10-10-12-12-12-12-12-12-12-12-|
B |-5-5-5-5-5-5-5-5-1-1-1-1-1-1-1-1-10-10-10-10-10-10-10-10-12-12-12-12-12-12-12-12-|

[Intro]


C#|---------------------------------------------------------------------------|
G#|---------------------------------------------------------------------------|
E |---------------------------------------------------------------------------|
B |-5-5-5-5-5-5-4-4-4-4-4-4-5-5-5-5-5-5-1-1-0-0-1-1---------------------------|
F#|-5-5-5-5-5-5-4-4-4-4-4-4-5-5-5-5-5-5-1-1-0-0-1-1---------------------------|
B |-5-5-5-5-5-5-4-4-4-4-4-4-5-5-5-5-5-5-1-1-0-0-1-1---------------------------|


C#|---------------------------------------------------------------------------|
G#|---------------------------------------------------------------------------|
E |---------------------------------------------------------------------------|
B |-5-5-5-5-5-5-4-4-4-4-4-4-5-5-5-5-5-5-8-8-7-7-4-4---------------------------|
F#|-5-5-5-5-5-5-4-4-4-4-4-4-5-5-5-5-5-5-8-8-7-7-4-4---------------------------|
B |-5-5-5-5-5-5-4-4-4-4-4-4-5-5-5-5-5-5-8-8-7-7-4-4---------------------------|

C#|---------------------------------------------------------------------------|
G#|---------------------------------------------------------------------------|
E |---------------------------------------------------------------------------|
B |-5-5-5-5-5-5-4-4-4-4-4-4-5-5-5-5-5-5-1-1-0-0-1-1---------------------------|
F#|-5-5-5-5-5-5-4-4-4-4-4-4-5-5-5-5-5-5-1-1-0-0-1-1---------------------------|
B |-5-5-5-5-5-5-4-4-4-4-4-4-5-5-5-5-5-5-1-1-0-0-1-1---------------------------|

C#|---------------------------------------------------------------------------|
G#|---------------------------------------------------------------------------|
E |---------------------------------------------------------------------------|
B |-5-5-5-5-5-5-4-4-4-4-4-4-8-8-7-7-4-4-8-8-7-7-4-4---------------------------|
F#|-5-5-5-5-5-5-4-4-4-4-4-4-8-8-7-7-4-4-8-8-7-7-4-4---------------------------|
B |-5-5-5-5-5-5-4-4-4-4-4-4-8-8-7-7-4-4-8-8-7-7-4-4---------------------------|
            
Submit corrections


        If Its Dead Well Kill It lessons Hard to play? Try these video lessons and learn fast If Its Dead Well Kill It lessons
        
↑ Back to top | Tablatures and chords for acoustic guitar and electric guitar, ukulele, drums are parodies/interpretations of the original songs. You may use it for private study, scholarship, research or language learning purposes only