» » »

Motionless In White - Holding On To Smoke Tabs

Artists:  A B C D E F G H I J K L M N O P Q R S T U V W X Y Z # 

Holding On To Smoke Tabs

(ver. 1) Click to play this song!
Motionless In White
 Rating:
4.3/5 (18 votes)

 Holding On To Smoke lessons Tabs too difficult? Try these video lessons and learn fast
 
                [Intro]

(Low distortion)
B |---------------------------------------------------------------------------|
F#|---------------------------------------------------------------------------|
D |---------------------------------------------------------------------------|
A |-4--4-4-4--0--0-0-0-0-0--4--4-4-4-0--0-0-0-0-------------------------------|
E |-4--4-4-4--0--0-0-0-0-0--4--4-4-4-0--0-0-0-0-------------------------------|
A |-4--4-4-4--0--0-0-0-0-0--4--4-4-4-0--0-0-0-0-------------------------------|

B |---------------------------------------------------------------------------|
F#|---------------------------------------------------------------------------|
D |---------------------------------------------------------------------------|
A |-4--4-4-4--0--0-0-0-0-0--4--4-4-4-0--0-0-0-0-------------------------------|
E |-4--4-4-4--0--0-0-0-0-0--4--4-4-4-0--0-0-0-0-------------------------------|
A |-4--4-4-4--0--0-0-0-0-0--4--4-4-4-0--0-0-0-0-------------------------------|

(Distortion on)
B |---------------------------------------------------------------------------|
F#|---------------------------------------------------------------------------|
D |---------------------------------------------------------------------------|
A |-4--4-4-4--0--0-0-0-0-0--4--4-4-4-0--0-0-0-0-------------------------------|
E |-4--4-4-4--0--0-0-0-0-0--4--4-4-4-0--0-0-0-0-------------------------------|
A |-4--4-4-4--0--0-0-0-0-0--4--4-4-4-0--0-0-0-0-------------------------------|

B |---------------------------------------------------------------------------|
F#|---------------------------------------------------------------------------|
D |---------------------------------------------------------------------------|
A |-4--4-4-4--0--0-0-0-0-0--4--4-4-4-0--0-0-0-0-------------------------------|
E |-4--4-4-4--0--0-0-0-0-0--4--4-4-4-0--0-0-0-0-------------------------------|
A |-4--4-4-4--0--0-0-0-0-0--4--4-4-4-0--0-0-0-0-------------------------------|

B |---------------------------------------------------------------------------|
F#|---------------------------------------------------------------------------|
D |---------------------------------------------------------------------------|
A |-4--4-4-4--0--0-0-0-0-0--4--4-4-4-0--0-0-0-0-------------------------------|
E |-4--4-4-4--0--0-0-0-0-0--4--4-4-4-0--0-0-0-0-------------------------------|
A |-4--4-4-4--0--0-0-0-0-0--4--4-4-4-0--0-0-0-0-------------------------------|

B |---------------------------------------------------------------------------|
F#|---------------------------------------------------------------------------|
D |---------------------------------------------------------------------------|
A |-4--4-4-4--0--0-0-0-0-0--4--4-4-4-0--0-0-0-0-------------------------------|
E |-4--4-4-4--0--0-0-0-0-0--4--4-4-4-0--0-0-0-0-------------------------------|
A |-4--4-4-4--0--0-0-0-0-0--4--4-4-4-0--0-0-0-0-------------------------------|


[Verse 1]

B |---------------------------------------------------------------------------|
F#|---------------------------------------------------------------------------|
D |-6~------------------------------------------------------------------------|
A |-4~---0~---4--4-4--2-4-4-2-4-2--4--4-4--2-4-4-2-4-2------------------------|
E |-4~---0~---4--4-4--2-4-4-2-4-2--4--4-4--2-4-4-2-4-2------------------------|
A |-4~---0~---4--4-4--2-4-4-2-4-2--4--4-4--2-4-4-2-4-2------------------------|

B |---------------------------------------------------------------------------|
F#|---------------------------------------------------------------------------|
D |---------------------------------------------------------------------------|
A |-2-0-2-0--0-0-0--0-2-0-0-0-0---2-0-2-0--0-0-0--0-2-0-0-0-0-----------------|
E |-2-0-2-0--0-0-0--0-2-0-0-0-0---2-0-2-0--0-0-0--0-2-0-0-0-0-----------------|
A |-2-0-2-0--0-0-0--0-2-0-0-0-0---2-0-2-0--0-0-0--0-2-0-0-0-0-----------------|

B |---------------------------------------------------------------------------|
F#|---------------------------------------------------------------------------|
D |-6~------------------------------------------------------------------------|
A |-4~---0~---4--4-4--2-4-4-2-4-2--4--4-4--2-4-4-2-4-2------------------------|
E |-4~---0~---4--4-4--2-4-4-2-4-2--4--4-4--2-4-4-2-4-2------------------------|
A |-4~---0~---4--4-4--2-4-4-2-4-2--4--4-4--2-4-4-2-4-2------------------------|

B |---------------------------------------------------------------------------|
F#|---------------------------------------------------------------------------|
D |---------------------------------------------------------------------------|
A |-2-0-2-0--0-0-0--0-2-0-0-0-0---2-0-2-0--0-0-0--0-2-0-0-0-0--4~--2~---------|
E |-2-0-2-0--0-0-0--0-2-0-0-0-0---2-0-2-0--0-0-0--0-2-0-0-0-0--4~--2~---------|
A |-2-0-2-0--0-0-0--0-2-0-0-0-0---2-0-2-0--0-0-0--0-2-0-0-0-0--4~--2~---------|


[Pre-Chorus]

B |---------------------------------------------------------------------------|
F#|---------------------------------------------------------------------------|
D |------------------4-4-4-4-4-4-4-4------------------------------------------|
A |-0-0-0-0-0-0-0-0--x-x-x-x-x-x-x-x-4-4-4-4-4-4-4-4-2-2-2-2-2-2-2-2----------|
E |-0-0-0-0-0-0-0-0--2-2-2-2-2-2-2-2-4-4-4-4-4-4-4-4-2-2-2-2-2-2-2-2----------|
A |-0-0-0-0-0-0-0-0------------------4-4-4-4-4-4-4-4-2-2-2-2-2-2-2-2----------|

B |---------------------------------------------------------------------------|
F#|---------------------------------------------------------------------------|
D |------------------4-4-4-4-4-4-4-4------------------------------------------|
A |-0-0-0-0-0-0-0-0--x-x-x-x-x-x-x-x-4-4-4-4-4-4-4-4-2-2-2-2-2-2-2-2----------|
E |-0-0-0-0-0-0-0-0--2-2-2-2-2-2-2-2-4-4-4-4-4-4-4-4-2-2-2-2-2-2-2-2----------|
A |-0-0-0-0-0-0-0-0------------------4-4-4-4-4-4-4-4-2-2-2-2-2-2-2-2----------|

B |---------------------------------------------------------------------------|
F#|---------------------------------------------------------------------------|
D |---------------------------------------------------------------------------|
A |---------------------------------------------------------------------------|
E |-2pm-2pm-2pm-2pm-2pm-2pm-2pm-2pm-------------------------------------------|
A |-2pm-2pm-2pm-2pm-2pm-2pm-2pm-2pm-------------------------------------------|


[Chorus]

B |---------------------------------------------------------------------------|
F#|---------------------------------------------------------------------------|
D |---------------------------------------------------------------------------|
A |-4--4-4-4--0--0-0-0-0-0--4--4-4-4-0--0-0-0-0-------------------------------|
E |-4--4-4-4--0--0-0-0-0-0--4--4-4-4-0--0-0-0-0-------------------------------|
A |-4--4-4-4--0--0-0-0-0-0--4--4-4-4-0--0-0-0-0-------------------------------|

B |---------------------------------------------------------------------------|
F#|---------------------------------------------------------------------------|
D |---------------------------------------------------------------------------|
A |-4--4-4-4--0--0-0-0-0-0--2--2-2-2--2pm-2pm-2pm-2pm-2pm-2pm-----------------|
E |-4--4-4-4--0--0-0-0-0-0--2--2-2-2--2pm-2pm-2pm-2pm-2pm-2pm-----------------|
A |-4--4-4-4--0--0-0-0-0-0--2--2-2-2--2pm-2pm-2pm-2pm-2pm-2pm-----------------|

B |---------------------------------------------------------------------------|
F#|---------------------------------------------------------------------------|
D |---------------------------------------------------------------------------|
A |-4--4-4-4--0--0-0-0-0-0--4--4-4-4-0--0-0-0-0-------------------------------|
E |-4--4-4-4--0--0-0-0-0-0--4--4-4-4-0--0-0-0-0-------------------------------|
A |-4--4-4-4--0--0-0-0-0-0--4--4-4-4-0--0-0-0-0-------------------------------|

B |---------------------------------------------------------------------------|
F#|---------------------------------------------------------------------------|
D |---------------------------------------------------------------------------|
A |-4--4-4-4--0--0-0-0-0-0--2--2-2-2--2pm-2pm-2pm-2pm-2pm-2pm-----------------|
E |-4--4-4-4--0--0-0-0-0-0--2--2-2-2--2pm-2pm-2pm-2pm-2pm-2pm-----------------|
A |-4--4-4-4--0--0-0-0-0-0--2--2-2-2--2pm-2pm-2pm-2pm-2pm-2pm-----------------|


[Verse 2]

B |---------------------------------------------------------------------------|
F#|---------------------------------------------------------------------------|
D |-6~------------------------------------------------------------------------|
A |-4~---0~---4--4-4--2-4-4-2-4-2--4--4-4--2-4-4-2-4-2------------------------|
E |-4~---0~---4--4-4--2-4-4-2-4-2--4--4-4--2-4-4-2-4-2------------------------|
A |-4~---0~---4--4-4--2-4-4-2-4-2--4--4-4--2-4-4-2-4-2------------------------|

B |---------------------------------------------------------------------------|
F#|---------------------------------------------------------------------------|
D |---------------------------------------------------------------------------|
A |-2-0-2-0--0-0-0--0-2-0-0-0-0---2-0-2-0--0-0-0--0-2-0-0-0-0-----------------|
E |-2-0-2-0--0-0-0--0-2-0-0-0-0---2-0-2-0--0-0-0--0-2-0-0-0-0-----------------|
A |-2-0-2-0--0-0-0--0-2-0-0-0-0---2-0-2-0--0-0-0--0-2-0-0-0-0-----------------|


[Chorus]

B |---------------------------------------------------------------------------|
F#|---------------------------------------------------------------------------|
D |---------------------------------------------------------------------------|
A |-4--4-4-4--0--0-0-0-0-0--4--4-4-4-0--0-0-0-0-------------------------------|
E |-4--4-4-4--0--0-0-0-0-0--4--4-4-4-0--0-0-0-0-------------------------------|
A |-4--4-4-4--0--0-0-0-0-0--4--4-4-4-0--0-0-0-0-------------------------------|

B |---------------------------------------------------------------------------|
F#|---------------------------------------------------------------------------|
D |---------------------------------------------------------------------------|
A |-4--4-4-4--0--0-0-0-0-0--2--2-2-2--2pm-2pm-2pm-2pm-2pm-2pm-----------------|
E |-4--4-4-4--0--0-0-0-0-0--2--2-2-2--2pm-2pm-2pm-2pm-2pm-2pm-----------------|
A |-4--4-4-4--0--0-0-0-0-0--2--2-2-2--2pm-2pm-2pm-2pm-2pm-2pm-----------------|

B |---------------------------------------------------------------------------|
F#|---------------------------------------------------------------------------|
D |---------------------------------------------------------------------------|
A |-4--4-4-4--0--0-0-0-0-0--4--4-4-4-0--0-0-0-0-------------------------------|
E |-4--4-4-4--0--0-0-0-0-0--4--4-4-4-0--0-0-0-0-------------------------------|
A |-4--4-4-4--0--0-0-0-0-0--4--4-4-4-0--0-0-0-0-------------------------------|

B |---------------------------------------------------------------------------|
F#|---------------------------------------------------------------------------|
D |---------------------------------------------------------------------------|
A |-4--4-4-4--0--0-0-0-0-0--2--2-2-2--2pm-2pm-2pm-2pm-2pm-2pm-----------------|
E |-4--4-4-4--0--0-0-0-0-0--2--2-2-2--2pm-2pm-2pm-2pm-2pm-2pm-----------------|
A |-4--4-4-4--0--0-0-0-0-0--2--2-2-2--2pm-2pm-2pm-2pm-2pm-2pm-----------------|


[Bridge]

B |---------------------------------------------------------------------------|
F#|---------------------------------------------------------------------------|
D |---------------------------------------------------------------------------|
A |---------------------------------------------------------------------------|
E |-4-444-7-4-444-7-4-2-4-444-7-4-444-7-4~-2~---------------------------------|
A |-4-444-7-4-444-7-4-2-4-444-7-4-444-7-4~-2~---------------------------------|

B |---------------------------------------------------------------------------|
F#|---------------------------------------------------------------------------|
D |---------------------------------------------------------------------------|
A |---------------------------------------------------------------------------|
E |-4-444-7-4-444-7-4-2-4-444-7-4-444-7-4~-2~--9-999-9-7-777-7----------------|
A |-4-444-7-4-444-7-4-2-4-444-7-4-444-7-4~-2~--9-999-9-7-777-7----------------|


[Intro]

(Low distortion)
B |---------------------------------------------------------------------------|
F#|---------------------------------------------------------------------------|
D |---------------------------------------------------------------------------|
A |-4--4-4-4--0--0-0-0-0-0--4--4-4-4-0--0-0-0-0-------------------------------|
E |-4--4-4-4--0--0-0-0-0-0--4--4-4-4-0--0-0-0-0-------------------------------|
A |-4--4-4-4--0--0-0-0-0-0--4--4-4-4-0--0-0-0-0-------------------------------|

B |---------------------------------------------------------------------------|
F#|---------------------------------------------------------------------------|
D |---------------------------------------------------------------------------|
A |-4--4-4-4--0--0-0-0-0-0--4--4-4-4-0--0-0-0-0-------------------------------|
E |-4--4-4-4--0--0-0-0-0-0--4--4-4-4-0--0-0-0-0-------------------------------|
A |-4--4-4-4--0--0-0-0-0-0--4--4-4-4-0--0-0-0-0-------------------------------|


[Chorus]

B |---------------------------------------------------------------------------|
F#|---------------------------------------------------------------------------|
D |---------------------------------------------------------------------------|
A |-4--4-4-4--0--0-0-0-0-0--4--4-4-4-0--0-0-0-0-------------------------------|
E |-4--4-4-4--0--0-0-0-0-0--4--4-4-4-0--0-0-0-0-------------------------------|
A |-4--4-4-4--0--0-0-0-0-0--4--4-4-4-0--0-0-0-0-------------------------------|

B |---------------------------------------------------------------------------|
F#|---------------------------------------------------------------------------|
D |---------------------------------------------------------------------------|
A |-4--4-4-4--0--0-0-0-0-0--2--2-2-2--2pm-2pm-2pm-2pm-2pm-2pm-----------------|
E |-4--4-4-4--0--0-0-0-0-0--2--2-2-2--2pm-2pm-2pm-2pm-2pm-2pm-----------------|
A |-4--4-4-4--0--0-0-0-0-0--2--2-2-2--2pm-2pm-2pm-2pm-2pm-2pm-----------------|

B |---------------------------------------------------------------------------|
F#|---------------------------------------------------------------------------|
D |---------------------------------------------------------------------------|
A |-4--4-4-4--0--0-0-0-0-0--4--4-4-4-0--0-0-0-0-------------------------------|
E |-4--4-4-4--0--0-0-0-0-0--4--4-4-4-0--0-0-0-0-------------------------------|
A |-4--4-4-4--0--0-0-0-0-0--4--4-4-4-0--0-0-0-0-------------------------------|

B |---------------------------------------------------------------------------|
F#|---------------------------------------------------------------------------|
D |---------------------------------------------------------------------------|
A |-4--4-4-4--0--0-0-0-0-0--2--2-2-2--2pm-2pm-2pm-2pm-2pm-2pm-----------------|
E |-4--4-4-4--0--0-0-0-0-0--2--2-2-2--2pm-2pm-2pm-2pm-2pm-2pm-----------------|
A |-4--4-4-4--0--0-0-0-0-0--2--2-2-2--2pm-2pm-2pm-2pm-2pm-2pm-----------------|

B |---------------------------------------------------------------------------|
F#|---------------------------------------------------------------------------|
D |---------------------------------------------------------------------------|
A |---------------------------------------------------------------------------|
E |-4-444-7-4-444-7-4-2-4-444-7-4-444-7-4~-2~---------------------------------|
A |-4-444-7-4-444-7-4-2-4-444-7-4-444-7-4~-2~---------------------------------|

B |---------------------------------------------------------------------------|
F#|---------------------------------------------------------------------------|
D |---------------------------------------------------------------------------|
A |---------------------------------------------------------------------------|
E |-4-444-7-4-444-7-4-2-4-444-7-4-444-7-4~-2~---------------------------------|
A |-4-444-7-4-444-7-4-2-4-444-7-4-444-7-4~-2~---------------------------------|

B |---------------------------------------------------------------------------|
F#|---------------------------------------------------------------------------|
D |---------------------------------------------------------------------------|
A |---------------------------------------------------------------------------|
E |-4-444-7-4-444-7-4-2-4-444-7-4-444-7-4~-2~---------------------------------|
A |-4-444-7-4-444-7-4-2-4-444-7-4-444-7-4~-2~---------------------------------|

B |---------------------------------------------------------------------------|
F#|---------------------------------------------------------------------------|
D |---------------------------------------------------------------------------|
A |---------------------------------------------------------------------------|
E |-4-444-7-4-444-7-4-2-4-444-7-4-444-7-4~-2~---------------------------------|
A |-4-444-7-4-444-7-4-2-4-444-7-4-444-7-4~-2~---------------------------------|

B |---------------------------------------------------------------------------|
F#|---------------------------------------------------------------------------|
D |---------------------------------------------------------------------------|
A |-11-12-9-------------------------------------------------------------------|
E |-11-12-9-------------------------------------------------------------------|
A |-11-12-9-------------------------------------------------------------------|            
Submit corrections


        Holding On To Smoke lessons Hard to play? Try these video lessons and learn fast Holding On To Smoke lessons
        
↑ Back to top | Tablatures and chords for acoustic guitar and electric guitar, ukulele, drums are parodies/interpretations of the original songs. You may use it for private study, scholarship, research or language learning purposes only