» » »

Motionless In White - 570 Tabs

Artists:  A B C D E F G H I J K L M N O P Q R S T U V W X Y Z # 

570 Tabs

(ver. 1) Click to play this song!
Motionless In White
 Rating:
4.3/5 (22 votes)

 570  lessons Tabs too difficult? Try these video lessons and learn fast
 
                uning: Drop B

( Pick slide is for lead)
This is for both Guitar:
C#|-----------------|------------------------|
G#|-----------------|------------------------|
E |-----------------|------------------------|
B |-----------------|------------------------|
F#|-0---------------|0--0-0--0-0-0-0--0-0--0-|
B |-0--19pick slide-|0--0-0--0-0-0-0--0-0--0-| listen for repeat

The last two pieces below repeat for the Rhythm at some point.
C#|------------------------|-------------------------------------|
G#|------------------------|-------------------------------------|
E |------------------------|-------------------------------------|
B |------------------------|-------------------------------------|
F#|-0--0-0--0--0-0--10--12-|-8--8-8--8--8-8--8-8--8--8-8--8--8-8-|
B |-0--0-0--0--0-0--10--12-|-8--8-8--8--8-8--8-8--8--8-8--8--8-8-| listen for repeat
Repeat for Rhythm ^

C#|--------------------------------------------|
G#|--------------------------------------------|
E |--------------------------------------------|
B |--------------------------------------------|
F#|--0--0-0--0--0-0--0--0-0--0--0-0--0--0--0-0-|
B |--0--0-0--0--0-0--0--0-0--0--0-0--0--0--0-0-| listen for repeat?            
Submit corrections


        570  lessons Hard to play? Try these video lessons and learn fast 570  lessons
        
↑ Back to top | Tablatures and chords for acoustic guitar and electric guitar, ukulele, drums are parodies/interpretations of the original songs. You may use it for private study, scholarship, research or language learning purposes only