» » »

Morrissey - Late Night Maudlin Street Chords

Artists:  A B C D E F G H I J K L M N O P Q R S T U V W X Y Z # 

Late Night Maudlin Street Chords

(ver. 2) Click to play this song!
Morrissey
 Rating:
4.4/5 (5 votes)

 Late Night Maudlin Street lessons Tabs too difficult? Try these video lessons and learn fast
 
                Intro]
Bass comes in around 1:30 or 1:37 depending on the version.
G|---------------------------------|---------------------------------|
D|---------------------------------|---------------------------------|
A|---------------------------------|-------------------------15\-----|
E|---------------------------------|---------------------------------|
   1 + + + 2 + + + 3 + + + 4 + + +   1 + + + 2 + + + 3 + + + 4 + + +

[Verse 2] "Where the world ugliest boy ..."
G|---------------------------------|---------------------------------|
D|---------------------------------|---------------------------------|
A|-3~----------------------15\-----|-3~----------------------15\-----|
E|---------------------------------|---------------------------------|
   1 + + + 2 + + + 3 + + + 4 + + +   1 + + + 2 + + + 3 + + + 4 + + +

G|---------------------------------|---------------------------------|
D|---------------------------------|---------------------------------|
A|-------------------------15\-----|-------------------------15\-----|
E|-3~------------------------------|-3~------------------------------|
   1 + + + 2 + + + 3 + + + 4 + + +   1 + + + 2 + + + 3 + + + 4 + + +

G|---------------------------------|---------------------------------|
D|---------------------------------|---------------------------------|
A|-3~----------------------15\-----|-3~----------------------15\-----|
E|---------------------------------|---------------------------------|
   1 + + + 2 + + + 3 + + + 4 + + +   1 + + + 2 + + + 3 + + + 4 + + +

G|---------------------------------|---------------------------------|
D|---------------------------------|---------------------------------|
A|-------------------------15\-----|---------------------------------|
E|-3~------------------------------|-3~------------------3---5---3---|
   1 + + + 2 + + + 3 + + + 4 + + +   1 + + + 2 + + + 3 + + + 4 + + +

[Chorus 2] "The last night ..."
G|---------------------------------|---------------------------------|
D|---------------------------------|---------------------------------|
A|---------------------------------|-2~------------------------------|
E|-0~------------------------------|---------------------------------|
   1 + + + 2 + + + 3 + + + 4 + + +   1 + + + 2 + + + 3 + + + 4 + + +

G|---------------------------------|---------------------------------|
D|---------------------------------|---------------------------------|
A|-5~------------------------------|---------------------------------|
E|---------------------------------|-0~------------------------------|
   1 + + + 2 + + + 3 + + + 4 + + +   1 + + + 2 + + + 3 + + + 4 + + +

G|---------------------------------|---------------------------------|
D|---------------------------------|---------------------------------|
A|---------------------------------|-2~------------------------------|
E|-0~------------------------------|---------------------------------|
   1 + + + 2 + + + 3 + + + 4 + + +   1 + + + 2 + + + 3 + + + 4 + + +

G|---------------------------------|---------------------------------|
D|---------------------------------|---------------------------------|
A|-5~------------------------------|-7~------------------------------|
E|---------------------------------|---------------------------------|
   1 + + + 2 + + + 3 + + + 4 + + +   1 + + + 2 + + + 3 + + + 4 + + +

G|---------------------------------|
D|---------------------------------|
A|-------------------------15\-----|
E|-0~------------------------------|
   1 + + + 2 + + + 3 + + + 4 + + +

[Verse 3] "When I sleep ..."
G|---------------------------------|---------------------------------|
D|---------------------------------|---------------------------------|
A|-3~----------------------15\-----|-3~----------------------15\-----|
E|---------------------------------|---------------------------------|
   1 + + + 2 + + + 3 + + + 4 + + +   1 + + + 2 + + + 3 + + + 4 + + +

G|---------------------------------|---------------------------------|
D|---------------------------------|---------------------------------|
A|-------------------------15\-----|-------------------------15\-----|
E|-3~------------------------------|-3~------------------------------|
   1 + + + 2 + + + 3 + + + 4 + + +   1 + + + 2 + + + 3 + + + 4 + + +

G|---------------------------------|---------------------------------|
D|---------------------------------|---------------------------------|
A|-3~----------------------15\-----|-3~----------------------15\-----|
E|---------------------------------|---------------------------------|
   1 + + + 2 + + + 3 + + + 4 + + +   1 + + + 2 + + + 3 + + + 4 + + +

G|---------------------------------|---------------------------------|
D|---------------------------------|---------------------------------|
A|-------------------------15\-----|---------------------------------|
E|-3~------------------------------|-3~------------------3---5---3---|
   1 + + + 2 + + + 3 + + + 4 + + +   1 + + + 2 + + + 3 + + + 4 + + +

[Chorus 3] "I Took strange pills ..."
G|---------------------------------|---------------------------------|
D|---------------------------------|---------------------------------|
A|---------------------------------|-2~------------------------------|
E|-0~------------------------------|---------------------------------|
   1 + + + 2 + + + 3 + + + 4 + + +   1 + + + 2 + + + 3 + + + 4 + + +

G|---------------------------------|---------------------------------|
D|---------------------------------|---------------------------------|
A|-5~------------------------------|---------------------------------|
E|---------------------------------|-0~------------------------------|
   1 + + + 2 + + + 3 + + + 4 + + +   1 + + + 2 + + + 3 + + + 4 + + +

G|---------------------------------|---------------------------------|
D|---------------------------------|---------------------------------|
A|---------------------------------|-2~------------------------------|
E|-0~------------------------------|---------------------------------|
   1 + + + 2 + + + 3 + + + 4 + + +   1 + + + 2 + + + 3 + + + 4 + + +

G|---------------------------------|---------------------------------|
D|---------------------------------|---------------------------------|
A|-5~------------------------------|---------------------------------|
E|---------------------------------|-0~------------------------------|
   1 + + + 2 + + + 3 + + + 4 + + +   1 + + + 2 + + + 3 + + + 4 + + +

G|---------------------------------|
D|---------------------------------|
A|-------------------------15\-----|
E|-0~------------------------------|
   1 + + + 2 + + + 3 + + + 4 + + +

[Verse 4] "Came home late ..."
G|---------------------------------|---------------------------------|
D|---------------------------------|---------------------------------|
A|-3~----------------------15\-----|-3~----------------------15\-----|
E|---------------------------------|---------------------------------|
   1 + + + 2 + + + 3 + + + 4 + + +   1 + + + 2 + + + 3 + + + 4 + + +

G|---------------------------------|---------------------------------|
D|---------------------------------|---------------------------------|
A|-------------------------15\-----|-------------------------15\-----|
E|-3~------------------------------|-3~------------------------------|
   1 + + + 2 + + + 3 + + + 4 + + +   1 + + + 2 + + + 3 + + + 4 + + +

G|---------------------------------|---------------------------------|
D|---------------------------------|---------------------------------|
A|-3~----------------------15\-----|-3~----------------------15\-----|
E|---------------------------------|---------------------------------|
   1 + + + 2 + + + 3 + + + 4 + + +   1 + + + 2 + + + 3 + + + 4 + + +

G|---------------------------------|---------------------------------|
D|---------------------------------|---------------------------------|
A|-------------------------15\-----|---------------------------------|
E|-3~------------------------------|-3~------------------3---5---3---|
   1 + + + 2 + + + 3 + + + 4 + + +   1 + + + 2 + + + 3 + + + 4 + + +

[Chorus 4] "The last bus ..."
G|---------------------------------|---------------------------------|
D|---------------------------------|---------------------------------|
A|---------------------------------|-2~------------------------------|
E|-0~------------------------------|---------------------------------|
   1 + + + 2 + + + 3 + + + 4 + + +   1 + + + 2 + + + 3 + + + 4 + + +

G|---------------------------------|---------------------------------|
D|---------------------------------|---------------------------------|
A|-5~------------------------------|-7~------------------------------|
E|---------------------------------|-0~------------------------------|
   1 + + + 2 + + + 3 + + + 4 + + +   1 + + + 2 + + + 3 + + + 4 + + +

G|---------------------------------|---------------------------------|
D|---------------------------------|---------------------------------|
A|---------------------------------|-2~------------------------------|
E|-0~------------------------------|---------------------------------|
   1 + + + 2 + + + 3 + + + 4 + + +   1 + + + 2 + + + 3 + + + 4 + + +

G|---------------------------------|---------------------------------|
D|---------------------------------|---------------------------------|
A|-5~------------------------------|-7~------------------------------|
E|---------------------------------|-0~------------------------------|
   1 + + + 2 + + + 3 + + + 4 + + +   1 + + + 2 + + + 3 + + + 4 + + +

G|---------------------------------|
D|---------------------------------|
A|-------------------------15\-----|
E|---------------------------------|
   1 + + + 2 + + + 3 + + + 4 + + +

[Verse 5] "Don't leave your torch behind ..."
G|---------------------------------|---------------------------------|
D|---------------------------------|---------------------------------|
A|-3~----------------------15\-----|-3~----------------------15\-----|
E|---------------------------------|---------------------------------|
   1 + + + 2 + + + 3 + + + 4 + + +   1 + + + 2 + + + 3 + + + 4 + + +

G|---------------------------------|---------------------------------|
D|---------------------------------|---------------------------------|
A|-------------------------15\-----|-------------------------15\-----|
E|-3~------------------------------|-3~------------------------------|
   1 + + + 2 + + + 3 + + + 4 + + +   1 + + + 2 + + + 3 + + + 4 + + +

G|---------------------------------|---------------------------------|
D|---------------------------------|---------------------------------|
A|-3~----------------------15\-----|-3~----------------------15\-----|
E|---------------------------------|---------------------------------|
   1 + + + 2 + + + 3 + + + 4 + + +   1 + + + 2 + + + 3 + + + 4 + + +

G|---------------------------------|---------------------------------|
D|---------------------------------|---------------------------------|
A|-------------------------15\-----|---------------------------------|
E|-3~------------------------------|-3~------------------3---5---3---|
   1 + + + 2 + + + 3 + + + 4 + + +   1 + + + 2 + + + 3 + + + 4 + + +

[Chorus 5] "But you ..."
G|---------------------------------|---------------------------------|
D|---------------------------------|---------------------------------|
A|---------------------------------|-2~------------------------------|
E|-0~------------------------------|---------------------------------|
   1 + + + 2 + + + 3 + + + 4 + + +   1 + + + 2 + + + 3 + + + 4 + + +

G|---------------------------------|---------------------------------|
D|---------------------------------|---------------------------------|
A|-5~------------------------------|-7~------------------------------|
E|---------------------------------|-0~------------------------------|
   1 + + + 2 + + + 3 + + + 4 + + +   1 + + + 2 + + + 3 + + + 4 + + +

G|---------------------------------|---------------------------------|
D|---------------------------------|---------------------------------|
A|---------------------------------|-2~------------------------------|
E|-0~------------------------------|---------------------------------|
   1 + + + 2 + + + 3 + + + 4 + + +   1 + + + 2 + + + 3 + + + 4 + + +

G|---------------------------------|---------------------------------|
D|---------------------------------|---------------------------------|
A|-5~------------------------------|-7~------------------------------|
E|---------------------------------|-0~------------------------------|
   1 + + + 2 + + + 3 + + + 4 + + +   1 + + + 2 + + + 3 + + + 4 + + +

G|---------------------------------|
D|---------------------------------|
A|-------------------------15\-----|
E|-0~------------------------------|
   1 + + + 2 + + + 3 + + + 4 + + +

[Verse 6] "I am moving house ..."
G|---------------------------------|---------------------------------|
D|---------------------------------|---------------------------------|
A|-3~----------------------15\-----|-3~----------------------15\-----|
E|---------------------------------|---------------------------------|
   1 + + + 2 + + + 3 + + + 4 + + +   1 + + + 2 + + + 3 + + + 4 + + +

G|---------------------------------|---------------------------------|
D|---------------------------------|---------------------------------|
A|-------------------------15\-----|-------------------------15\-----|
E|-3~------------------------------|-3~------------------------------|
   1 + + + 2 + + + 3 + + + 4 + + +   1 + + + 2 + + + 3 + + + 4 + + +

G|---------------------------------|---------------------------------|
D|---------------------------------|---------------------------------|
A|-3~----------------------15\-----|-3~----------------------15\-----|
E|---------------------------------|---------------------------------|
   1 + + + 2 + + + 3 + + + 4 + + +   1 + + + 2 + + + 3 + + + 4 + + +

G|---------------------------------|---------------------------------|
D|---------------------------------|---------------------------------|
A|-------------------------15\-----|---------------------------------|
E|-3~------------------------------|-3~------------------------------|
   1 + + + 2 + + + 3 + + + 4 + + +   1 + + + 2 + + + 3 + + + 4 + + +

[Bridge] "I will be soon ..."
G|---------------------------------|---------------------------------|
D|---------------------------------|---------------------------------|
A|-2~------------------------------|-7~------------------------------|
E|---------------------------------|---------------------------------|
   1 + + + 2 + + + 3 + + + 4 + + +   1 + + + 2 + + + 3 + + + 4 + + +

G|---------------------------------|---------------------------------|
D|---------------------------------|---------------------------------|
A|-2~------------------------------|---------------------------------|
E|---------------------------------|-0~------------------------------|
   1 + + + 2 + + + 3 + + + 4 + + +   1 + + + 2 + + + 3 + + + 4 + + +

G|---------------------------------|---------------------------------|
D|---------------------------------|---------------------------------|
A|-2~------------------------------|-7~------------------------------|
E|---------------------------------|---------------------------------|
   1 + + + 2 + + + 3 + + + 4 + + +   1 + + + 2 + + + 3 + + + 4 + + +

G|---------------------------------|---------------------------------|
D|---------------------------------|---------------------------------|
A|-2~------------------------------|-------------------------15\-----|
E|---------------------------------|-0~------------------------------|
   1 + + + 2 + + + 3 + + + 4 + + +   1 + + + 2 + + + 3 + + + 4 + + +

G|---------------------------------|---------------------------------|
D|---------------------------------|---------------------------------|
A|-3~----------------------15\-----|-3~----------------------15\-----|
E|---------------------------------|---------------------------------|
   1 + + + 2 + + + 3 + + + 4 + + +   1 + + + 2 + + + 3 + + + 4 + + +

G|---------------------------------|---------------------------------|
D|---------------------------------|---------------------------------|
A|-------------------------15\-----|-------------------------15\-----|
E|-3~------------------------------|-3~------------------------------|
   1 + + + 2 + + + 3 + + + 4 + + +   1 + + + 2 + + + 3 + + + 4 + + +

G|---------------------------------|---------------------------------|
D|---------------------------------|---------------------------------|
A|-3~----------------------15\-----|-3~----------------------15\-----|
E|---------------------------------|---------------------------------|
   1 + + + 2 + + + 3 + + + 4 + + +   1 + + + 2 + + + 3 + + + 4 + + +

G|---------------------------------|---------------------------------|
D|---------------------------------|---------------------------------|
A|---------------------------------|---------------------------------|
E|-3~------------------------------|-3~------------------3---5---3---|
   1 + + + 2 + + + 3 + + + 4 + + +   1 + + + 2 + + + 3 + + + 4 + + +

[Chorus 6] "There were bad times ..."
G|---------------------------------|---------------------------------|
D|---------------------------------|---------------------------------|
A|---------------------------------|-2~------------------------------|
E|-0~------------------------------|---------------------------------|
   1 + + + 2 + + + 3 + + + 4 + + +   1 + + + 2 + + + 3 + + + 4 + + +

G|---------------------------------|---------------------------------|
D|---------------------------------|---------------------------------|
A|-5~------------------------------|-7~------------------------------|
E|---------------------------------|-0~------------------------------|
   1 + + + 2 + + + 3 + + + 4 + + +   1 + + + 2 + + + 3 + + + 4 + + +

G|---------------------------------|---------------------------------|
D|---------------------------------|---------------------------------|
A|---------------------------------|-2~----------------------2/------|
E|-0~------------------------------|---------------------------------|
   1 + + + 2 + + + 3 + + + 4 + + +   1 + + + 2 + + + 3 + + + 4 + + +

G|---------------------------------|---------------------------------|
D|---------------------------------|---------------------------------|
A|-5~------------------------------|-7~------------------------------|
E|---------------------------------|---------------------------------|
   1 + + + 2 + + + 3 + + + 4 + + +   1 + + + 2 + + + 3 + + + 4 + + +

G|---------------------------------|
D|---------------------------------|
A|-------------------------15\-----|
E|-0~------------------------------|
   1 + + + 2 + + + 3 + + + 4 + + +

[Verse 7] "Your gran died ..."
G|---------------------------------|---------------------------------|
D|---------------------------------|---------------------------------|
A|-3~----------------------15\-----|-3~----------------------15\-----|
E|---------------------------------|---------------------------------|
   1 + + + 2 + + + 3 + + + 4 + + +   1 + + + 2 + + + 3 + + + 4 + + +

G|---------------------------------|---------------------------------|
D|---------------------------------|---------------------------------|
A|-------------------------15\-----|-------------------------15\-----|
E|-3~------------------------------|-3~------------------------------|
   1 + + + 2 + + + 3 + + + 4 + + +   1 + + + 2 + + + 3 + + + 4 + + +

G|---------------------------------|---------------------------------|
D|---------------------------------|---------------------------------|
A|-3~----------------------15\-----|-3~----------------------15\-----|
E|---------------------------------|---------------------------------|
   1 + + + 2 + + + 3 + + + 4 + + +   1 + + + 2 + + + 3 + + + 4 + + +

G|---------------------------------|---------------------------------|
D|---------------------------------|---------------------------------|
A|-------------------------15\-----|---------------------------------|
E|-3~------------------------------|-3~------------------3---5---3---|
   1 + + + 2 + + + 3 + + + 4 + + +   1 + + + 2 + + + 3 + + + 4 + + +

[Chorus 7] "I took the key ..."
G|---------------------------------|---------------------------------|
D|---------------------------------|---------------------------------|
A|---------------------------------|-2~------------------------------|
E|-0~------------------------------|---------------------------------|
   1 + + + 2 + + + 3 + + + 4 + + +   1 + + + 2 + + + 3 + + + 4 + + +

G|---------------------------------|---------------------------------|
D|---------------------------------|---------------------------------|
A|-5~------------------------------|---------------------------------|
E|---------------------------------|-0~------------------------------|
   1 + + + 2 + + + 3 + + + 4 + + +   1 + + + 2 + + + 3 + + + 4 + + +

G|---------------------------------|---------------------------------|
D|---------------------------------|---------------------------------|
A|---------------------------------|-2~------------------------------|
E|-0~----------------------0.------|---------------------------------|
   1 + + + 2 + + + 3 + + + 4 + + +   1 + + + 2 + + + 3 + + + 4 + + +

G|---------------------------------|---------------------------------|
D|---------------------------------|---------------------------------|
A|-5~------------------------------|-7~------------------------------|
E|---------------------------------|-0~------------------------------|
   1 + + + 2 + + + 3 + + + 4 + + +   1 + + + 2 + + + 3 + + + 4 + + +

G|---------------------------------|
D|---------------------------------|
A|-------------------------15\-----|
E|-0~------------------------------|
   1 + + + 2 + + + 3 + + + 4 + + +

[Outro] "Wherever you are ..."
G|---------------------------------|---------------------------------|
D|---------------------------------|---------------------------------|
A|-3~----------------------15\-----|-3~----------------------15\-----|
E|---------------------------------|---------------------------------|
   1 + + + 2 + + + 3 + + + 4 + + +   1 + + + 2 + + + 3 + + + 4 + + +

G|---------------------------------|---------------------------------|
D|---------------------------------|---------------------------------|
A|-------------------------15\-----|-------------------------15\-----|
E|-3~------------------------------|-3~------------------------------|
   1 + + + 2 + + + 3 + + + 4 + + +   1 + + + 2 + + + 3 + + + 4 + + +

G|---------------------------------|---------------------------------|
D|---------------------------------|---------------------------------|
A|-3~----------------------15\-----|-3~----------------------15\-----| (Fade)
E|---------------------------------|---------------------------------|
   1 + + + 2 + + + 3 + + + 4 + + +   1 + + + 2 + + + 3 + + + 4 + + +            
Submit corrections


        Late Night Maudlin Street lessons Hard to play? Try these video lessons and learn fast Late Night Maudlin Street lessons
        
↑ Back to top | Tablatures and chords for acoustic guitar and electric guitar, ukulele, drums are parodies/interpretations of the original songs. You may use it for private study, scholarship, research or language learning purposes only