» » »

Morrissey - Suedehead Bass

Artists:  A B C D E F G H I J K L M N O P Q R S T U V W X Y Z # 

Suedehead Bass

(ver. 1) Click to play this song!
Morrissey
 Rating:
4/5 (4 votes)

 Suedehead lessons Tabs too difficult? Try these video lessons and learn fast
 
                Suedehead
Morrissey


Intro
G |--------------------------------|--------------------------------|
D |--------------------------------|--------------------------------|
A |---------------------5-^-7------|-----------------------------(3)|
E |-5-----------5---7-----------3--|-----7-------7---7--------------|

G |--------------------------------|--------------------------------|
D |--------------------------------|--------------------------------|
A |-5---------------------------2--|-----2-------2------------------|
E |-------------3---3--------------|-----------------2-------2------|

Verse
G |--------------------------------|--------------------------------|
D |-2-----------2---------------2--|-----2-------2------------------|
A |-----------------2--------------|-----------------2-------2------|
E |--------------------------------|--------------------------------|

G |--------------------------------|--------------------------------|
D |-2-----------2---------------2--|-----2-------2---2-------2-^-4--|
A |-----------------2--------------|--------------------------------|
E |--------------------------------|--------------------------------|

G |--------------------------------|--------------------------------|
D |-0-----------0---0-----------0--|-----0-------0---0-------2-^-4--|
A |--------------------------------|--------------------------------|
E |--------------------------------|--------------------------------|

G |--------------------------------|--------------------------------|
D |-0-----------0---0-----------0--|-----0-------0---0--------------|
A |--------------------------------|--------------------------------|
E |--------------------------------|--------------------------------|

G |--------------------------------|-----------------4-------4------|
D |-2-----------2---------------2--|-----2-------2------------------|
A |-----------------2--------------|--------------------------------|
E |--------------------------------|--------------------------------|

G |--------------------------------|--------------------------------|
D |-2-----------2---------------2--|-----2-------2---2-------2-^-4--|
A |-----------------2--------------|--------------------------------|
E |--------------------------------|--------------------------------|

G |--------------------------------|--------------------------------|
D |-0-----------0---0-----------0--|-----0-------0---0-------2-^-4--|
A |--------------------------------|--------------------------------|
E |--------------------------------|--------------------------------|

G |-----------------------------4--|--------------------------------|
D |-0-----------0---0--------------|-----7-------4---4---5-^-7------|
A |--------------------------------|--------------------------------|
E |--------------------------------|--------------------------------|

Chorus
G |-----------------6--------------|-----------------4--------------|
D |-4-------4---4-----------4---2--|-----2---2---2-----------2------|
A |--------------------------------|--------------------------------|
E |--------------------------------|--------------------------------|

G |--------------------------------|--------------------------------|
D |-0-----------0---0-----------2--|-----2-------2---2--------------|
A |--------------------------------|--------------------------------|
E |--------------------------------|--------------------------------|

G |-----------------6--------------|-----------------4--------------|
D |-4-------4---4-----------4---2--|-----2---2---2------------------|
A |--------------------------------|-------------------------2------|
E |--------------------------------|--------------------------------|

G |--------------------------------|--------------------------------|
D |-0-----------0-----------0------|-----0-----------0-----------0--|
A |--------------------------------|--------------------------------|
E |--------------------------------|--------------------------------|

Interlude
G |--------------------------------|--------------------------------|
D |-5-----------5---5----------5---|-----5-------5---5-------5------|
A |--------------------------------|--------------------------------|
E |--------------------------------|--------------------------------|

G |--------------------------------|--------------------------------|
D |-4-----------4---4----------4---|-----4-------4---4-------4------|
A |--------------------------------|--------------------------------|
E |--------------------------------|--------------------------------|

G |--------------------------------|--------------------------------|
D |-5-----------5---5----------5---|-----5-------5---5-------5------|
A |--------------------------------|--------------------------------|
E |--------------------------------|--------------------------------|

G |--------------------------------|--------------------------------|
D |-0-----------0-----------0------|-----0-----------0-----------7\-|
A |--------------------------------|--------------------------------|
E |--------------------------------|--------------------------------|

Order:
[00:12] Intro 2x
[00:25] Verse
[00:52] Chorus

[01:06] Intro 2x
[01:19] Verse
[01:46] Chorus

[02:00] Intro 2x
[02:13] Interlude

[02:27] Verse
[02:52] Chorus

[03:08] Intro until fade
            
Submit corrections


        Suedehead lessons Hard to play? Try these video lessons and learn fast Suedehead lessons
        
↑ Back to top | Tablatures and chords for acoustic guitar and electric guitar, ukulele, drums are parodies/interpretations of the original songs. You may use it for private study, scholarship, research or language learning purposes only