» » »

Morrissey - November Spawned A Monster Tabs

Artists:  A B C D E F G H I J K L M N O P Q R S T U V W X Y Z # 

November Spawned A Monster Tabs

(ver. 1) Click to play this song!
Morrissey
 Rating:
4/5 (4 votes)

 November Spawned A Monster lessons Tabs too difficult? Try these video lessons and learn fast
 
                Morrissey- november spawned a monster


Tuning:standard

intro
e|---------------------------------------------------------------------------|
B|---------------------------------------------------------------------------|
G|-----0------0--------------------------------------------------------------|
D|---0--0-3-0---0------------------------------------------------------------|
A|---------------------------------------------------------------------------|
E|-3-------------------------------------------------------------------------|


verse
"sleep on..love"               "closest u will get....2 love"
e|-----------------------------------------------------------------|
B|-----------------------------------------------------------------|
G|-----------------------------------------------------------------|
D|--8--7------0-----0-----0----0----8-7----------------------8-7---|
A|--6--5-----0-0-30--0---0-030--0---6-5----------------5--3--6-5---|
E|----------3-----------3------------------------------3--1--------|
--

 " twisted child.."
e|-----------10-10---------------------------------|
B|---10------11-11---------------------------------|
G|-----10------------------------------------------|
D|-------------------------------------------------|
A|-------------------------------------------------|
E|-------------------------------------------------|

"when november..."
e|--------------------------------------------|
B|----3---------------------------------------|
G|----2--7-5-3-2------------------------------|
D|-3--0--x-x-x-2------------------------------|
A|-3-----5-3-1-0------------------------------|
E|-1------------------------------------------|


"jesus made me so.."     "pity and symp.."    " a frame of useless limbs.."
e|--10----------------------------------------10----------------------------|
B|--11----------------------------------------11----------------------------|
G|------------------------14-12-14-12h14-12---------------------------------|
D|--------------------------------------------------------------------------|
A|--------------------------------------------------------------------------|
E|--------------------------------------------------------------------------|


"all the bad thats been done?"
e|---------------------------------------------|
B|---------------------------------------------|
G|---14-12-10h12-10-9h10-9-----7-5-3-2---------|
D|-----------------------------x-x-x-2---------|
A|-----------------------------5-3-1-0---------|
E|---------------------------------------------|


bridge
e|----10-11-13-11-10----------|
B|----------------------------|
G|----------------------------|
D|----------------------------|
A|----------------------------|
E|----------------------------|

well thats all i could tab out..
            
Submit corrections


        November Spawned A Monster lessons Hard to play? Try these video lessons and learn fast November Spawned A Monster lessons
        
↑ Back to top | Tablatures and chords for acoustic guitar and electric guitar, ukulele, drums are parodies/interpretations of the original songs. You may use it for private study, scholarship, research or language learning purposes only