» » »

Montgomery Gentry - Hell Yeah Tabs

Artists:  A B C D E F G H I J K L M N O P Q R S T U V W X Y Z # 

Hell Yeah Tabs

(ver. 2) Click to play this song!
Montgomery Gentry
 Rating:
4/5 (4 votes)

 Hell Yeah  lessons Tabs too difficult? Try these video lessons and learn fast
 
                (2)
intro: use volume control for effect

--------------------------------------------------
-------------------------8---6----5----8---6--5----
--7--5---7---5-------------------------------------
--------------------------------------------------
--------------------------------------------------
--------------------------------------------------


1st verse:  

3--------6-----3--------------------------
5----------6b--------3-5-3p0--3-----------
--5p3-----------5b---3-5-3p0-----2b-0-----
------5----------------------5----
--------------------------------------------
--------------------------------------------

chorus:( main lead)

--------------------------------------------------
---------------------------------------------------
-3-2p0-----------3-----------0-----0---0----0------
--------3p-2p0---------------------------------0----
---------------------------3----2----3----4--------
-------------------3-----------------------------



added 1st chorus: order= 1st& 2nd  then repeat 1st then 3rd part

---------------------------------------------------
--------------------------------------------------
3b-0-----0-3p2p0---------------------3-2-0--------
-----0h2---------2p0--------0h2-0-2-----------2----
---------------------3-----------------------------
---------------------------------------------------


--------------------------
----------------8--10b---
--------7--7/9-----------
-7/9--------------------
-------------------------
------------------------
2nd verse 

-3-3-3-3----1--1--1-1---0------3---3--3--3---------
-3-3-3-3----1--1--1-1---1------3h5-3--3--5p3-------
---------------------------------------------------
---------------------------------------------------
---------------------------------------------------
---------------------------------------------------


repeat chorus: (main lead)



1st guitar solo

-------------------------------------------
11b-11b-8-----8----------------------------
----------------------5b-3------------0-0--
-----------10b--10-8-------5--3p0-4h5------
--------------------------------------------
---------------------------------------------



---------------------------------
-13b-13b^v-11-------------11-13p11-
--------------12-12-12-12----------12
-------------------------------------
--------------------------------------
--------------------------------------





------------------------------------------
-----------------------------------------
---10--5p3p0-----0-0----3b^-0----------0-
12-----------4/5--------------3p0--4/5---
-----------------------------------------
------------------------------------------



-----------------------13----15----
---------11b^v-8--8-------15b---15b--
-----------------------------------
--10/12---------10b-----------------
---------------------------------------
-----------------------------------------


--13---12---11---10------------------------
15---14---13--12------8---10b^v-8-----------
-----------------------------------8b^v-3---
-------------------------------------------
-------------------------------------------
------------------------------------------



------------------------------------
----------------------------------5---
---------------------3-------/5-----
--3b^v-----/5-------------5-----------
--------------------------------------
--------------------------------------

chorus last before 2nd lead

------------------------------------------
------------------------------------------
3p2p0-------3----------0-3p2p0 2--0----------
------3p2p0-------0h2-----------------------
--------------------------------------------
-------------3------------------------------


----------------------------------------12
-------------------------------5-----------
----0----0--0-----0---------/5-----10/12----
--------------------0---------------------
-3----2----3---4-----------------------
------------------------------------------


2nd lead

----------------------------------------
-----------------------------13pb11-----
3-2p0--------3------10-b^-----------12--
------3p2p0-----------------------------
----------------------------------------
----------------3-------------------------


13--15---13------13--12---11-----7--7-----
15----15b--15b-15--14---13-------8--8-----
---------------------------------------
----------------------------------------
----------------------------------
------------------------------------



---3-----3----------------------
-----------------11b-8----------
3p0--3p0---3p0---------10-7-----
----------------------------10--
--------------------------------
--------------------------------



----8-----6----3--3-----------------------------
-------------------3--3-5-3---5-5b^v-3--5-3----
-7h9--5h7---3h5---4---3-5-3---5-5b^v-3--5-3---
------------------5--------5---------------5---
-------------------------------------------
--------------------------------------------

------------------------10--------------10-
11b-(5x)-8-11----8-8-8--13b-11-------13b---
--------------10--------------12-12--------
-------------------------------------------
--------------------------------------------
--------------------------------------------



---10----------------------------------
13b----13-11--------------------------
------------12-10-------------------
-----------------12-10--8--10b^V-8-10-8-
-------------------------10------------10
-------------------------------------

---------------------------------------
-------------------3-5-3p0-------------
0------0--------0--3-5-3p0---0-----0---
-5p3p0---5p3p0-------------3---4/5-----
---------------------------------------
---------------------------------------


---------------------------------------
--------------------------------------
----3-2p0-------3-----0---0----0-------
----------3p2p0-------------------0-----
------------------2------3---4--------
------------------------------------
            
Submit corrections


        Hell Yeah  lessons Hard to play? Try these video lessons and learn fast Hell Yeah  lessons
        
↑ Back to top | Tablatures and chords for acoustic guitar and electric guitar, ukulele, drums are parodies/interpretations of the original songs. You may use it for private study, scholarship, research or language learning purposes only