» » »

Montgomery Gentry - Hell Yeah Tabs

Artists:  A B C D E F G H I J K L M N O P Q R S T U V W X Y Z # 

Hell Yeah Tabs

(ver. 1) Click to play this song!
Montgomery Gentry
 Rating:
4/5 (4 votes)

 Hell Yeah lessons Tabs too difficult? Try these video lessons and learn fast
 
                Just the Lead for the Chorus - If I'm off someone let me know. 1st Submission.

#1 -	E-----------------------------------------
	B-----------------------------------------
	G--3-2-0-------0--------------------------
	D--------3-2-0----------------------------
	A----------------1------------------------
	E-----------------------------------------
I corrected this tab....was WAY off....sorry

#2 -	E-----------------------------------------
	B-----------------------------------------
	G--0---0---0---0--------------------------
	D-----------------------------------------
	A----2-- 3-- 4---5------------------------
	E------------------3----------------------

	(Classic AC/DC riff)
            
Submit corrections


        Hell Yeah lessons Hard to play? Try these video lessons and learn fast Hell Yeah lessons
        
↑ Back to top | Tablatures and chords for acoustic guitar and electric guitar, ukulele, drums are parodies/interpretations of the original songs. You may use it for private study, scholarship, research or language learning purposes only