» » »

Montgomery Gentry - Cold One Comin' On Tabs

Artists:  A B C D E F G H I J K L M N O P Q R S T U V W X Y Z # 

Cold One Comin' On Tabs

(ver. 3) Click to play this song!
Montgomery Gentry
 Rating:
4/5 (4 votes)

 Cold One Comin' On lessons Tabs too difficult? Try these video lessons and learn fast
 
                Montgomery Gentry - Cold One Coming On (intro)



If you want to make the picking a bit easier if your barre chords
aren't too good, put a capo on the 4th fret and bring the tab down
4 frets.


***********************************************************************


First a slide is played.


E--2/4---|
B--2/4---|
G--------|
D--------|
A--------|
E--------|


Then guitar 1 plays this: (which is repeated twice in intro)


E-----------------------|
B-----------------------|
G-----------------------|
D--------6--------6-4---|
A-----4h6------4h6--4---|
E--4-4--------4---------|


After each time that is played, guitar 2 plays this:


1st time                  2nd time


E-----------|             E------------|
B-----------|             B------------|
G-----6-----|             G------6-----|
D----4-4----|             D----4--4----|
A---8---8---|             A---8-8--8---|
E--4--------|             E--4---------|


            
Submit corrections


        Cold One Comin' On lessons Hard to play? Try these video lessons and learn fast Cold One Comin' On lessons
        
↑ Back to top | Tablatures and chords for acoustic guitar and electric guitar, ukulele, drums are parodies/interpretations of the original songs. You may use it for private study, scholarship, research or language learning purposes only