» » »

Montgomery Gentry - Cold One Comin' On Tabs

Artists:  A B C D E F G H I J K L M N O P Q R S T U V W X Y Z # 

Cold One Comin' On Tabs

(ver. 2) Click to play this song!
Montgomery Gentry
 Rating:
4/5 (4 votes)

 Cold One Comin' On lessons Tabs too difficult? Try these video lessons and learn fast
 
                Montgomery Gentry - Cold One Comin' On (lead solo)


There are two guitars playing over the second half of the solo.
This tab is for the main lead guitar, not the harmonised part.

***********************************************************************

b   =   bend                        br   =   bend & release

/   =   slide up                    h    =   hammer-on

\   =   slide down                  bh   =   bend & hold

r   =   release bend

***********************************************************************



E---------------------------------------------------------------
B----------7/9--------------------------------------------------
G------------------------------------6--------------------------
D--8b-8br-6---8br-6-6h8-6\4------------8b-8-6-8b-8-6---/13------
A------------------8---------6b-6br-4--------8------------11\---
E---------------------------------------------------------11\---


E-----------------------------------9-9-------------
B----------7/9--7\6-6\4-4\2-2/4-----9-9-------------
G--------------------------------8bh---8r-6---------
D--8b-8br-6--------------------------------8br-6-6--
A-----------------------------------------------8---
E---------------------------------------------------


E----------------------------------|
B----------------------------------|
G--6--6--6---6--8---8-8-8-8--6-6---|
D--8b-8b-8br-6--8bh-8-8-8-8r--8----|
A----------------------------------|
E----------------------------------|
            
Submit corrections


        Cold One Comin' On lessons Hard to play? Try these video lessons and learn fast Cold One Comin' On lessons
        
↑ Back to top | Tablatures and chords for acoustic guitar and electric guitar, ukulele, drums are parodies/interpretations of the original songs. You may use it for private study, scholarship, research or language learning purposes only