Home » M » Modest Mouse »

Modest Mouse - Dashboard Bass

Artists:  A B C D E F G H I J K L M N O P Q R S T U V W X Y Z # 

Dashboard Bass

(ver. 3) Click to play this song!
Modest Mouse
Start after the guitar plays 1 1/2 way through the intro.

x = pause.
()= let ring.
/ = slide up.
\ = slide down.
(x:xx) = min/sec. into song.

(equal speed here.)
Intro:
G:-------------| (0:20)
D:-2--0--------|
A:-------4--0--|
E:-------------|

Listen for the slide.
Right after the hammer-on, play the 5th fret quickly
On all Verses
(same w/ 2nd Fret)

                                              Be Careful here.
1st. Verse:
G:-----------------------------------------------------------| (0:22)
D:---9---7--9---9/12---5--5h7-5--5-\-2-2h4-2-2-x--0----------|
A:--------------------------------------------------4-0------|
E:-----------------------------------------------------------|

2nd. Verse
G:-----------------------------------------------------------| (0:29)
D:-7-9---7--9---9/12---5--5h7-5--5-\-2-2h4-2-2-x--0----------|
A:--------------------------------------------------4-0------|
E:-----------------------------------------------------------|X5



"Now Here We Go!"



Chorus:
G:-------------------------------------------------------| (1:04)
D:-----------------------(9)---7h9-/12----14h16-14\(7)---|
A:------997-----997--------------------------------------|
E:-777------777------------------------------------------|

G:------------------------------------------| (1:14)
D:---(9)---7h9-/12----14h16-14-----(14)-----|
A:------------------------------------------|
E:------------------------------------------|

G:-------------------------------------------------------| (1:22)
D:-----------------------(9)---7h9-/12----14h16-14\(7)---|
A:-------------------------------------------------------|
E:-------------------------------------------------------|




".....Worse Then It Would Even Gone....."


2nd. Verse
G:-----------------------------------------------------------| (1:33)
D:-7-9---7--9---9/12---5--5h7-5--5-\-2-2h4-2-2-x--0----------|
A:--------------------------------------------------4-0------|
E:-----------------------------------------------------------|X3

"...Well We Schemed And We Schemed..."

G:-------------------------------------------------------| (1:53)
D:-----------------------(9)---7h9-/12----14h16-14\(7)---|
A:------997-----997--------------------------------------|
E:-777------777------------------------------------------|

G:------------------------------------------| (2:04)
D:---(9)---7h9-/12----14h16-14-----(14)-----|
A:------------------------------------------|
E:------------------------------------------|

G:-------------------------------------------------------| (2:11)
D:-----------------------(9)---7h9-/12----14h16-14\(7)---|
A:-------------------------------------------------------|
E:-------------------------------------------------------|

This This The Quiet Weird/Bridge Part.


Bridge:
G:------------------------| (2:23)
D:------------------------|
A:-------------(7)--(7)---|
E:-/7----/5----(0)--(0)---|X3



"...Last Laugh Of This Show..."

G:-------------------------------------------------------| (2:41)
D:-------------------------------------------------------|
A:------997-----997--------------------------------------|
E:-777------777------------------------------------------|



Bridge:
G:------------------------| (2:59)
D:------------------------|
A:-------------(7)--(7)---|
E:-/7----/5----(0)--(0)---|X3





Intro / 2nd. Verse
G:-------------------------------------------------------------------|(3:11)
D:-2-0---------9---7--9---9/12---5--5h7-5--5-\-2-2h4---2-2-x-0-------|
A:------4-0-----------------------------------------------------4--0-|
E:-------------------------------------------------------------------|


2nd. Verse
G:-----------------------------------------------------------| (3:20)
D:-7-9---7--9---9/12---5--5h7-5--5-\-2-2h4-2-2-x--0----------|
A:--------------------------------------------------4-0------|
E:-----------------------------------------------------------|X3



G:--------------------------------------------------| (3:41)
D:-------------(9)---7h9-/12----14h16-14\(7)--------|
A:------997-----------------------------------------|
E:-777----------------------------------------------|

G:------------------------------------------| (3:48)
D:---(9)---7h9-/12----14h16-14-----(14)-----|
A:------------------------------------------|
E:------------------------------------------|

G:--------------------------------------------------| (3:56)
D:-------------(9)---7h9-/12----14h16-14\(7)--------|
A:--------------------------------------------------|
E:--------------------------------------------------|


...The Fish Are Biting.....


99% correct.
            
Submit corrections

↑ Back to top | Tablatures and chords for acoustic guitar and electric guitar, ukulele, drums are parodies/interpretations of the original songs. You may use it for private study, scholarship, research or language learning purposes only