Home » M » Modest Mouse »

Modest Mouse - Dashboard Bass

Artists:  A B C D E F G H I J K L M N O P Q R S T U V W X Y Z # 

Dashboard Bass

(Version #1)
Modest Mouse
-------------------------------------------------------------------------------
			     DASHBOARD - Modest Mouse
-------------------------------------------------------------------------------

 

Tuning:standad
         Intro
G|-----------------|
D|-----------------|
A|-------7-5-3-0---|
E|-----------------|
                                verse 
G|---------------------------------------------------------------------------|
D|-----------------------17--------------------------------------------------|
A|-----14-14-17-19/10-10---10-7-77-7-5-2-0-12--REPEATx7------------------------|
E|---------------------------------------------------------------------------|
                         "HERE WE GO!"
G|-----------------------------------------------------------------------------------|
D|-----------------16-16-14x2-------------------------------------------16-16-14X2---|
A|---------14-14-14----------14-12/14/17-19/21/19-14------------14-14-14-------------|
E|-----------------------------------------------------------------------------------|
                    
G|-----------------------------------------------------------------------------------|
D|-----------------------------------(----------------------19)-----------16-16-14x2-|REPEAT  
A|--------14-12/14/17-19/21/19-24-(if-only-21-frets-19/21/19--)---14-14-14-----------|
E|-----------------------------------------------------------------------------------|
                          
                          back to verse 

        then             "well we schemed" 
G|---------------------------------------------------------------------------|
D|-----------------16-16-14x2------------------------------------------------|
A|---------14-14-14----------14-12/14/17-19/21/19-14-------------------------|
E|---------------------------------------------------------------------------|

G|-----------------------------------------------------------------------------------------|
D|-----------------------------------(----------------------19)-----------16-16-14x2-------|
A|--------14-12/14/17-19/21/19-24-(if-only-21-frets-19/21/19--)---14-14-14----------REPEAT-|
E|-----------------------------------------------------------------------------------------|
                    "Well we would've been could've been" (2:23)
G|---------------------------------------------------------------------------|
D|----4-4-4-----------------16-16-14x2---------------------------------------|
A|--2--5-7---x3-----14-14-14-------------------------------------------------|
E|---------------------------------------------------------------------------|
                     "Well we woulda been coulda been" (2:59)
G|---------------------------------------------------------------------------|
D|---------------------------------------------------------------------------|
A|------14b15-9b10-7b8-----Back-to-the-verse---------------------------------|
E|---------------------------------------------------------------------------|
                          "now here we go" (3:40)
G|---------------------------------------------------------------------------|
D|--------------16-16-14-----------------------------------16-16-14----------|
A|------14-14-14----------14-12/14/17-19/21/19-14---14-14-14-----------------|
E|---------------------------------------------------------------------------|

G|---------------------------------------------------------------------------|
D|--------------------------or---19---------16-16-14-------------------------|
A|--14-12/14/17-19/21/19-24-0r------14-14-14--------14-12/14/17-19/21/19-14--|
E|---------------------------------------------------------------------------|



Thats the song 
happy playing!!
            
Submit corrections

↑ Back to top | Tablatures and chords for acoustic guitar and electric guitar, ukulele, drums are parodies/interpretations of the original songs. You may use it for private study, scholarship, research or language learning purposes only