Home » M » Modest Mouse »

Modest Mouse - Dashboard Bass

Artists:  A B C D E F G H I J K L M N O P Q R S T U V W X Y Z # 

Dashboard Bass

(ver. 2) Click to play this song!
Modest Mouse
Intro:
G:------------|
D:------------|
A:-7--5--4--0-|
E:------------|

Verse:
G:--------7-----------------------------------|
D:-9--7-9-------------------------------------|
A:-----------10h12p10--\7--7h9p7---x--5--4--0-|
E:--------------------------------------------|

Chorus:
G:------------7---9h11p9------------------------|
D:-9-9-9-7h9------------------------------------|
A:------------------------12--------997-----997-|
E:------------------------------777-----777-----|

G:------------7---9h11p9-14-----------------|
D:-9-9-9-7h9--------------------------------|
A:------------------------------997-----997-|
E:--------------------------777-----777-----|

Bridge:
Verse:
G:------------------------|
D:------------------------|
A:------------(7)--(7-----|
E:-/7----/5----0----0-----|


Between verse lines you can add fillers of your choice:

G:--------7--------------------------------------|
D:-9--7-9---------------------------------------7|
A:-----------10h12p10--\7--7h9p7---x--5--4h5p4---|
E:-----------------------------------------------|

Make some up.

This is my first tab in my life I've done by ear, so rate if I'm any good at this.
            
Submit corrections

↑ Back to top | Tablatures and chords for acoustic guitar and electric guitar, ukulele, drums are parodies/interpretations of the original songs. You may use it for private study, scholarship, research or language learning purposes only