» » »

Mississippi John Hurt - Tabs

Artists:  A B C D E F G H I J K L M N O P Q R S T U V W X Y Z # 

Tabs

(ver. 2) Click to play this song!
Mississippi John Hurt
 Rating:
4.3/5 (21 vote)

  lessons Tabs too difficult? Try these video lessons and learn fast
 
                [Intro]

  G                                      C               G
e|--3-----------0-3--|------------3-----|--0-----0-----0-3--|------------------|
B|------------3------|------------------|------------3------|------------------|
G|-------------------|------------------|-------------------|------------------|
D|------0-------0----|------0-------0---|------2-------2----|------0-------0---|
A|-------------------|------------------|--3-------3--------|------------------|
E|--3-------3--------|--3-------3-------|-------------------|--3-------3-------|

  G                                      A                   D
e|--3-----------0-3--|------------------|--------5---2------|------------------|
B|------------3------|------------------|----------------3--|------------------|
G|-------------------|------------------|----2--------------|------------------|
D|------0-------0----|------0-------0---|------2-------2----|------0-------0---|
A|-------------------|----------2-------|--0-------0--------|--0-------0-------|
E|--3-------3--------|--3---------------|-------------------|------------------| 

  G                                      C               G
e|--3-----------0-3--|------------3-----|--0-----0-----0-3--|------------------|
B|------------3------|------------------|------------3------|------------------|
G|-------------------|------------------|-------------------|------------------|
D|------0-------0----|------0-------0---|------2-------2----|------0-------0---|
A|-------------------|------------------|--3-------3--------|------------------|
E|--3-------3--------|--3-------3-------|-------------------|--3-------3-------|

  G
e|-------------------|----3---0---------|--0----------------|----3-----3-----3-|
B|----0---3----------|------------3---3-|------------0------|--------0---------|
G|--3----------------|------------------|----------3-----0--|------------0-----|
D|------0-------0----|------0-----------|------0-------0----|------0-------2---|
A|-------------------|--------------0---|-------------------|------------------|
E|--3-------3--------|--3-------3-------|--3-------3--------|--3-------3-------|


[First Guitar Break]

  G                                      C               G
e|--3-----------0-3--|------------1-----|--0-----------0-3--|------------------|
B|------------3------|------------------|------------3------|------------------|
G|-------------------|------------------|-------------------|------------------|
D|------0-------0----|------0-------0---|------2-------2----|------0-------0---|
A|-------------------|------------------|--3-------3--------|------------------|
E|--3-------3--------|--3-------3-------|-------------------|--3-------3-------|

  G                                      A                   D
e|--3-----------0-3--|------------------|--------5---2------|------------------|
B|------------3------|------------------|----------------3--|------------------|
G|-------------------|------------------|----2--------------|------------------|
D|------0-------0----|------0-------0---|------2-------2----|------0-------0---|
A|-------------------|----------2-------|--0-------0--------|--0-------0-------|
E|--3-------3--------|--3---------------|-------------------|------------------| 

  G                                      C               G
e|--3-----------0-3--|------------1-----|--0-----------0-3--|------------------|
B|------------3------|------------------|------------3------|------------------|
G|-------------------|------------------|-------------------|------------------|
D|------0-------0----|------0-------0---|------2-------2----|------0-------0---|
A|-------------------|------------------|--3-------3--------|------------------|
E|--3-------3--------|--3-------3-------|-------------------|--3-------3-------|

  G
e|-------------------|----3---0---------|--0----------------|----3-----3-----3-|
B|----0---3----------|------------3---3-|------------0------|--------0---------|
G|--3----------------|------------------|----------3-----0--|------------0-----|
D|------0-------0----|------0-----------|------0-------0----|------0-------2---|
A|-------------------|--------------0---|-------------------|------------------|
E|--3-------3--------|--3-------3-------|--3-------3--------|--3-------3-------|


[Second Guitar Break]

  G                                      C               G
e|--3-----------0-3--|------------1-----|--0-----0-----0-3--|------------------|
B|------------3------|------------------|------------3------|------------------|
G|-------------------|------------------|-------------------|------------------|
D|------0-------0----|------0-------0---|------2-------2----|------0-------0---|
A|-------------------|------------------|--3-------3--------|------------------|
E|--3-------3--------|--3-------3-------|-------------------|--3-------3-------|

  G                                      A                   D
e|--3-----------0-3--|------------------|--------5---2------|------------------|
B|------------3------|------------------|----------------3--|------------------|
G|-------------------|------------------|----2--------------|------------------|
D|------0-------0----|------0-------0---|------2-------2----|------0-------0---|
A|-------------------|----------2-------|--0-------0--------|--0-------0-------|
E|--3-------3--------|--3---------------|-------------------|------------------| 

  G                                      C               G
e|--3-----------0-3--|------------0-----|--0-----0-----0-3--|------------------|
B|------------3------|------------------|------------3------|------------------|
G|-------------------|------------------|-------------------|------------------|
D|------0-------0----|------0-------0---|------2-------2----|------0-------0---|
A|-------------------|------------------|--3-------3--------|------------------|
E|--3-------3--------|--3-------3-------|-------------------|--3-------3-------|

  G
e|-------------------|----3---0---------|--0----------------|----3-----3-----3-|
B|----0---3----------|------------3---3-|------------0------|--------0---------|
G|--3----------------|------------------|----------3-----0--|------------0-----|
D|------0-------0----|------0-----------|------0-------0----|------0-------2---|
A|-------------------|--------------0---|-------------------|------------------|
E|--3-------3--------|--3-------3-------|--3-------3--------|--3-------3-------|


[Third Guitar Break]

  G                                      C               G
e|-6/7-------6/7-----|--6/7----3---1----|--0-----0-----0-3--|------------------|
B|-------------------|------------------|------------3------|------------------|
G|-------------------|------------------|-------------------|------------------|
D|------0---------0--|-------0-------0--|------2-------2----|------0-------0---|
A|-------------------|------------------|--3-------3--------|------------------|
E|-6/7-------6/7-----|--6/7------3------|-------------------|--3-------3-------|

  G                                      A                   D
e|-6/7-------6/7-----|--6/7----3--------|--------5---2------|------------------|
B|-------------------|------------------|----------------3--|------------------|
G|-------------------|------------------|----2--------------|------------------|
D|------0---------0--|-------0-------0--|------2-------2----|------0-------0---|
A|-------------------|------------------|--0-------0--------|--0-------0-------|
E|-6/7-------6/7-----|--6/7------3------|-------------------|------------------| 

  G                                      C               G
e|-6/7-------6/7-----|--6/7----3---1----|--0-----0-----0-3--|------------------|
B|-------------------|------------------|------------3------|------------------|
G|-------------------|------------------|-------------------|------------------|
D|------0---------0--|-------0-------0--|------2-------2----|------0-------0---|
A|-------------------|------------------|--3-------3--------|------------------|
E|-6/7-------6/7-----|--6/7------3------|-------------------|--3-------3-------|

  G
e|-------------------|----3---0---------|--0----------------|----3-----3-----3-|
B|----0---3----------|------------3---3-|------------0------|--------0---------|
G|--3----------------|------------------|----------3-----0--|------------0-----|
D|------0-------0----|------0-----------|------0-------0----|------0-------2---|
A|-------------------|--------------0---|-------------------|------------------|
E|--3-------3--------|--3-------3-------|--3-------3--------|--3-------3-------|            
Submit corrections


         lessons Hard to play? Try these video lessons and learn fast  lessons
        
↑ Back to top | Tablatures and chords for acoustic guitar and electric guitar, ukulele, drums are parodies/interpretations of the original songs. You may use it for private study, scholarship, research or language learning purposes only