Home » M » Mississippi John Hurt »

Mississippi John Hurt - Spike Driver Blues Tabs

Artists:  A B C D E F G H I J K L M N O P Q R S T U V W X Y Z # 

Spike Driver Blues Tabs

(ver. 1) Click to play this song!
Mississippi John Hurt
----------------------------------------------------------------------------
----------------------------------------------------------------------------



Tuning: Standard

|-------------|-3-----1-----|-3----3--------|-------------|
|-------------|-------------|------------0--|-------------|
|-------------|-------------|----------3----|-0-----------|
|----0-----0--|----0-----0--|----0-------0--|----2-----2--|
|-------------|-------------|---------------|-------------|
|-3-----3-----|-3-----3-----|-3------3------|-3-----3-----|


|---------------|---------------|---1-----1---0-1-|---------------|
|------0-----0--|---------------|-------0---3-----|---------3---3-|
|----------3----|-0-------0---0-|-----------------|---------------|
|----2-------0--|----0------0---|-----0-------0---|----0------0---|
|---------------|-------2-------|-----------------|-------2-------|
|-3------3------|-3-------------|-3-------3-------|-3-------------|


|---3-----3---0-3-|---------------|------3-----0---|-3-----1-----|
|-------0---3-----|---------------|----------3---0-|-------------|
|-----------------|---------0---0-|----------------|-------------|
|-----0-------0---|----0------0---|----0-------0---|----0-----0--|
|-----------------|-------2-------|----------------|-------------|
|-3-------3-------|-3-------------|-3------3-------|-3-----3-----|


|-3----3--------|-------------|---------------|---------------|
|------------0--|-------------|------0-----0--|---------------|
|----------3----|-0-----------|----------3----|-0-------0---0-|
|----0-------0--|----2-----2--|----2-------0--|----0------0---|
|---------------|-------------|---------------|-------2-------|
|-3------3------|-3-----3-----|-3------3------|-3-------------|


|---1-----1---0-1-|---------------|---3-----3---0-3-|---------------|
|-------0---3-----|---------------|-------0---3-----|---------------|
|-----------------|---------0---0-|-----------------|---------0---0-|
|-----0-------0---|----0------0---|-----0-------0---|----0------0---|
|-----------------|-------2-------|-----------------|-------2-------|
|-3-------3-------|-3-------------|-3-------3-------|-3-------------|


|------3-----0---|-3-------3-----|---------------|-------------|
|----------3-----|-------------0-|-----------0---|-------------|
|--------------0-|---------------|---------3---0-|-------------|
|----0-------0---|----0------0---|----0------0---|----2-----2--|
|----------------|---------------|---------------|-------------|
|-3------3-------|-3-----3-------|-3-----3-------|-3-----3-----|


|---------------|---------------|---1-----1---0-1-|---------------|
|-----------0---|---------------|-------0---3-----|---------------|
|---------3---0-|---------0---0-|-----------------|---------0---0-|
|----2------0---|----0------0---|-----0-------0---|----0------0---|
|---------------|-------2-------|-----------------|-------2-------|
|-3-----3-------|-3-------------|-3-------3-------|-3-------------|


|---3-----3---0-3-|---------------|-------0---0-3-|-------1-----|
|-------0---3-----|---------------|---------3-----|-------------|
|-----------------|---------0---0-|---------------|-------------|
|-----0-------0---|----0------0---|----0------0---|----0-----0--|
|-----------------|-------2-------|---------------|-------------|
|-3-------3-------|-3-------------|-3-----3-------|-3-----3-----|


|-3----3--------|-------------|---------------|---------------|
|------------0--|-------------|------0-----0--|---------------|
|----------3----|-0-----------|----------3----|---------0---0-|
|----0-------0--|----2-----2--|----2-------0--|----0------0---|
|---------------|-------------|---------------|-------2-------|
|-3------3------|-3-----3-----|-3------3------|-3-------------|


|---1-----1---0-1-|---------------|---3-----3---0-3-|---------------|
|-------0---3-----|---------------|-------0---3-----|---------------|
|-----------------|---------0---0-|-----------------|---------0---0-|
|-----0-------0---|----0------0---|-----0-------0---|----0------0---|
|-----------------|-------2-------|-----------------|-------2-------|
|-3-------3-------|-3-------------|-3-------3-------|-3-------------|


|-3----|
|-0----|
|-0----|
|-0----|
|------|
|-3----|


| /  slide up
| \  slide down
| h  hammer-on
| p  pull-off
| ~  vibrato
| +  harmonic
| x  Mute note
===========================================================================
            
Submit corrections

↑ Back to top | Tablatures and chords for acoustic guitar and electric guitar, ukulele, drums are parodies/interpretations of the original songs. You may use it for private study, scholarship, research or language learning purposes only