Home » M » Misfits »

Misfits - Where Eagles Dare Tabs

Artists:  A B C D E F G H I J K L M N O P Q R S T U V W X Y Z # 

Where Eagles Dare Tabs

(ver. 3) Click to play this song!
Misfits
			     WHERE EAGLES DARE - Misfits


Classic song, anyone starting to learn guitar should learn this first.

Verse
e|---------------------------------------------------------------------------|
B|---------------------------------------------------------------------------|
G|---------------------------------------------------------------------------|
D|----77777*---5-------------------------------------------------------------|
A|----77777----5-------------------------------------------------------------|
E|----55555----3-------------------------------------------------------------|

Chorus
	A      G
e|---------------------------------------------------------------------------|
B|---------------------------------------------------------------------------|
G|-----555555----------------------------------------------------------------|
D|-----555555-----333555-----------------------------------------------------|
A|-----333333-----333555-----------------------------------------------------|
E|----------------111333-----------------------------------------------------|
          C        F  G
e|---------------------------------------------------------------------------|
B|---------------------------------------------------------------------------|
G|----5-5--5555---------------5----------------------------------------------|
D|----5-5--5555---3-3--5555---5----------------------------------------------|
A|----3-3--3333---3-3--5555---3----------------------------------------------|
E|----------------1-1--3333--------------------------------------------------|
          C        F      G      C

We walk the streets at night 
We go where eagles dare 
They pick up every movement 
They pick up every loser 
With jaded eyes and features 
You think they really care 

I ain't no god*** son of a b**ch 
You better think about it baby 
I ain't no god*** son of a b**ch 
You better think about it baby, babe 

An omelet of disease awaits your noontime meal 
Her mouth of germicide seducing all your glands 

I ain't no god*** son of a b**ch 
You better think about it baby 
I ain't no god*** son of a b**ch 
You better think about it baby, babe 

Let's test your threshold of pain 
Let's see how long you last 
That's happened in your rape 
On bosoms of your past 
With jaded eyes and features 
You think they really care 

Let's go where eagles dare 
We'll go where eagles dare 

I ain't no god*** son of a b**ch 
You better think about it baby 
I ain't no god*** son of a b**ch Y
ou better think about it baby 
I ain't no god*** son of a b**ch 
You better think about it baby 
I ain't no god*** son of a b**ch 
You better think about it baby, hey
            
Submit corrections

↑ Back to top | Tablatures and chords for acoustic guitar and electric guitar, ukulele, drums are parodies/interpretations of the original songs. You may use it for private study, scholarship, research or language learning purposes only