Home » M » Misfits »

Misfits - Fiend Club Tabs

Artists:  A B C D E F G H I J K L M N O P Q R S T U V W X Y Z # 

Fiend Club Tabs

(ver. 1) Click to play this song!
Misfits

e b g d a d tuning (1/2 step down)

figure out how many times it plays intro then riff 2 etc...

------------------------------------------------------------
------------------------------------------------------------
------------------------------------------------------------
-5---7---5---7---5---5--1-1-1-1-1-1---3---------------------
-5---7---5---7---5---5--1-1-1-1-1-1---3---------------------
-5---7---5---7---5---5--1-1-1-1-1-1---3---------------------

------------------------------------------------------------
------------------------------------------------------------
------------------------------------------------------------
-5-5-5-5-5-5--1-1-1-1-1-1-1---------------------------------
-5-5-5-5-5-5--1-1-1-1-1-1-1---------------------------------
-5-5-5-5-5-5--1-1-1-1-1-1-1---------------------------------

------------------------------------------------------------
------------------------------------------------------------
-3----------------------------------------------------------
-3----0----1----3-------------------------------------------
-1----0----1----3-------------------------------------------
------0----1----3-------------------------------------------
            
Submit corrections

↑ Back to top | Tablatures and chords for acoustic guitar and electric guitar, ukulele, drums are parodies/interpretations of the original songs. You may use it for private study, scholarship, research or language learning purposes only