Home » M » Misfits »

Misfits - Helena Tabs

Artists:  A B C D E F G H I J K L M N O P Q R S T U V W X Y Z # 

Helena Tabs

(ver. 1) Click to play this song!
Misfits
 Rating:
4/5 (4 votes)
                Helena - The Misfits

|---------------------
|---------------------
|----------4----------	X2
|-----6----4----4-----
|-----6----2----4-----
|-----4---------2-----




|------------|----------------------------------
|------------|----------------------------------
|------------|-------4--4-----------------------	X12
|---4--4--5--|--6----4--4----4--4---4-4--5------
|---4--4--5--|--6----2--2----4--4---4-4--5------
|---2--2--3--|--4------------2--2---2-2--3------


|------------|------------------------------------------------------------------
|------------|------------------------------------------------------------------
|------------|----------------4--4----------------------------------------------  X3
|---4--4--5--|---6--6---------4--4-----------4--4----------------------4--4--5--
|---4--4--5--|---6--6---------2--2-----------4--4----------------------4--4--5--
|---2--2--3--|---4--4--4--4----------2--2----2--2---2--2--2--2--2--2---2--2--3--
		       PM-]	     PM-]	    PM-------------]

SLOW!!!

|-------------------------------------
|-------------------------------------
|-------------4--4--------------------
|---6---------4--4---------4--4-------
|---6---------2--2---------4--4-------
|---4--4--4---------2--2---2--2-------
       PM-]	    PM-]
****************************************************

	Fig X
|---------------------------------------------------------------
|---------------------------------------------------------------
|----9--9--9---10--10---10----7--7--7---9---9--9--5--5---7---7--
|----9--9--9---10--10---10----7--7--7---9---9--9--5--5---7---7--
|----7--7--7---8---8----8-----5--5--5---7---7--7--3--3---5---5--
|---------------------------------------------------------------

|------------------------------------------------------
|------------------------------------------------------
|-----4--4--4--5--5--5---2--2--2--4--4--4--------------	X2
|-----4--4--4--5--5--5---2--2--2--4--4--4--4--4--5--5--
|-----2--2--2--3--3--3---0--0--0--2--2--2--4--4--5--5--
|------------------------------------------2--2--3--3--

****************************************************

	Fig 1
|---------------------------------------------------------
|---------------------------------------------------------
|----------4------5-------7--------5---------4-----2---4--
|----------4------5-------7--------5---------4-----2---4--
|----------2------3-------5--------3---------2-----0---2--
|---0--0------0-------0-------0---------0-------0---------
    Pm-]      PM      PM      PM	PM	PM

	Fig 2
|-------------------------------------------------------
|-------------------------------------------------------
|-----------4-------5---------7---------5---5-5--4--4---
|-----------4-------5---------7---------5---5-5--4--4---
|-----------2-------3---------5---------3---3-3--2--2---
|---0--0--------0--------0---------0--------------------
    Pm-]	Pm	 Pm	   Pm    

	Order In this section - Fig 1, 2, 1, 2


	Fig A
|-------------------------------------------------------------------
|-------------------------------------------------------------------
|----9--9-9-9-9-9-9--9---7---5---7--7-7-7-7-7-7----7---5---7---9----	X2
|----9--9-9-9-9-9-9--9---7---5---7--7-7-7-7-7-7----7---5---7---9----
|----7--7-7-7-7-7-7--7---5---3---5--5-5-5-5-5-5----5---3---5---7----
|-------------------------------------------------------------------


	Fig B
|-------------------------------------------------------------------
|-------------------------------------------------------------------
|----9---------------12--11--9---7--------------7---5---7---9-------	X2
|----9---------------12--11--9---7--------------7---5---7---9-------
|----7---------------10--9---8---5--------------5---3---5---7-------
|-------0-0-0-0-0-0-----------------0-0-0-0-0-0---------------------
	Pm--------]		    Pm--------]


Then Fig 1,2,1,2

Then Fig A,B,A,B

Then Fig X - 4 times

|----------------------------------------
|----------------------------------------
|----4-----------4--2--4--5----------5---
|----4-----------4--2--4--5----------5---
|----2-----------2--0--2--3----------3---
|-------2-2-2-2--------------3-3-3-3-----
	Pm----]		     Pm----]

|-------------------------------------------------------
|-------------------------------------------------------
|---2--3--4-----------4---------------------------------
|---2--3--4-----------4-------5-----7-4~~~--------------
|---0--1--2-----------2-------5-----7-4~~~--------------
|------------2-2-2-2--------3-3--5--5-2~~~--------------
	     Pm----]	    Pm	 Pm	

|------------------------------------
|------------------------------------
|------------------4-4---------------
|-------------6-6--4-4--4-4----------
|-------------6-6--2-2--4-4----------
|----2///\\\--4-4-------2-2----------

Then Begginning Part

Then End On

|----------------------------------------------------------------
|----------------------------------------------------------------
|----------------------------------------------------------------
|----6--6--7--7--6~~~~-------------------------------------------
|----6--6--7--7--6~~~~-------------------------------------------
|----4--4--5--5--4~~~~-------------------------------------------
            
Submit corrections

↑ Back to top | Tablatures and chords for acoustic guitar and electric guitar, ukulele, drums are parodies/interpretations of the original songs. You may use it for private study, scholarship, research or language learning purposes only