» » »

Misfits - Some Kinda Hate Bass

Artists:  A B C D E F G H I J K L M N O P Q R S T U V W X Y Z # 

Some Kinda Hate Bass

(ver. 1) Click to play this song!
Misfits
 Rating:
4/5 (4 votes)


 Some Kinda Hate  lessons Tabs too difficult? Try these video lessons and learn fast
 
                (2)
Song Name: Some Kinda Hate
     Artist Name: The Misfits
      Album Name: Legacy of Brutality/Static Age

  Tuning- Standard

   Verse 1
G|------------------------------------
D|------------------------repeat-4x---
A|------------------------------------
E|--8-88-88-88-7-5-55-55-55-(7)-------

            (7)-only first three times
  
  Chorus
G|------------------------------------
D|------------------------repeat-3x---
A|------------------------------------
E|-11111111-33333333------------------

  play directly after Chorus 1
G|------------------------------------
D|------------------------------------
A|------------------------------------
E|-1--1-3-----------------------------

   Verse 2
G|------------------------------------
D|------------------------repeat-3x---
A|------------------------------------
E|--8-88-88-88-7-5-55-55-55-(7)-------
            
            (7)-only first three times
   Bridge
G|------------------------------------
D|------------------------------------
A|--------2h3h44444444----------------
E|--444444----------------------------

   Let ring at end
G|------------------------------------
D|------------------------------------
A|------------------------------------
E|--8~--------------------------------



Transition:

Verse 1
Chorus
Verse 2
Chorus
Bridge
Verse 2 (during solo and out)
Chorus
            
Submit corrections



        Some Kinda Hate  lessons Hard to play? Try these video lessons and learn fast Some Kinda Hate  lessons
        
↑ Back to top | Tablatures and chords for acoustic guitar and electric guitar, ukulele, drums are parodies/interpretations of the original songs. You may use it for private study, scholarship, research or language learning purposes only