Home » M » Misfits »

Misfits - Monster Mash Tabs

Artists:  A B C D E F G H I J K L M N O P Q R S T U V W X Y Z # 

Monster Mash Tabs

(ver. 1) Click to play this song!
Misfits
 Rating:
4/5 (4 votes)
                ----------------------------------------7--7--7--7------9--9--9--9-  (X 12)
---7--7--7--7------4--4--4--4-----------5--5--5--5------7--7--7--7-
---5--5--5--5------2--2--2--2--------------------------------------

----------------------------------------7--7--7--7------9--9--9--9-repeat until break
---7--7--7--7------4--4--4--4-----------5--5--5--5------7--7--7--7-
---5--5--5--5------2--2--2--2--------------------------------------

at the break ("The guests included wolfman") stop and after he says "Dracula and his son!" play open top E and slide from and fret 13 power chord back to the original 5/7 power chord.

here you just play each not once…

----------------------7--------9------------------------------------   
---7--------4---------5--------7-----7------------------------------
---5--------2------------------------5------------------------------
            
Submit corrections

↑ Back to top | Tablatures and chords for acoustic guitar and electric guitar, ukulele, drums are parodies/interpretations of the original songs. You may use it for private study, scholarship, research or language learning purposes only