» » »

Misfits - Kong At The Gates Tabs

Artists:  A B C D E F G H I J K L M N O P Q R S T U V W X Y Z # 

Kong At The Gates Tabs

(ver. 2) Click to play this song!
Misfits
 Rating:
4/5 (4 votes)
                



This song is really easy so you shouldn't have any trouble with it.
The tuning for this song is dropped down half a step.


e-------------------------------------------
b-------------------------------------------
g-------------------------------------------
d-------------2-----5-4-2------------------- x2
a-------------0-3-2-5-4-0-3-2-3-2-3-2-3-2---
e-(pic slide)-------3-2-------------------3-


e--------------------------------
b--------------------------------
g--------------------------------
d-7-----10-9-7------------------- x2
a-7-8-7-10-9-7-8-7-8-7-8-7-8-7---
e-5-----8--7-5-----------------8-


e------------------------------------
b------------------------------------
g-------5-4-------------------5------
d-2-3-2-5-4-2-3-2-3-2-3-2-3-2-5--(2)- x 2          Last Time play the chord in the 
a-0-3-2-3-2-0-3-2-3-2-3-2-3-2-3--(0)-              brackets.
e---1-0-------1-0-1-0-1-0-1-0--------

Thats the whole song. Hope you enjoy.
If you have any comments or any corrections
            
Submit corrections

↑ Back to top | Tablatures and chords for acoustic guitar and electric guitar, ukulele, drums are parodies/interpretations of the original songs. You may use it for private study, scholarship, research or language learning purposes only