Home » M » Misfits »

Misfits - Dream Lover Tabs

Artists:  A B C D E F G H I J K L M N O P Q R S T U V W X Y Z # 

Dream Lover Tabs

(ver. 1) Click to play this song!
Misfits
 Rating:
4/5 (4 votes)
                Tuning: Standard



note: I am not displaying the timing right on the tab
 listen to the song to get it right

palm muting = .
slide  =  /
let ring  = lr

Riff 1
E----------------------
B----------------------
G----------------------
D-10-10--1097-7-7-7910-
A-10-10--1097-7-7-7910-
E- 8- 8-- 875-5-5-57 8-

Riff 2
E--------------------------------------
B--------------------------------------
G--------------------------------------
D-1010101010101010-1097-77777777-7910--
A-1010101010101010-1097-77777777-7910--
E- 8 8 8 8 8 8 8 8- 875-55555555-57 8--
   . . . . . . . .      ........
Riff 3
E------------------------------------------------------------------
B------------------------------------------------------------------
G---------------------------------------------------------77777777-
D-10-10-10-10-10-10-10-10-5-5-5-5-5-5-5-5-7-7-7-7-7-7-7-7-77777777-
A-10-10-10-10-10-10-10-10-5-5-5-5-5-5-5-5-7-7-7-7-7-7-7-7-55555555-
E- 8- 8- 8- 8- 8- 8- 8- 8-3-3-3-3-3-3-3-3-5-5-5-5-5-5-5-5----------
      .  .  .  .     .  .   . . . .   . .   . . . .   . .

Chorus
E---------------------------|-----------------------------
B---------------------------|-----------------------------
G---------------------------|-----------------------------
D-10--10--7--7--3--3--5--5--|-1010101010101010---3-3-3-3--
A-10--10--7--7--3--3--5--5--|-1010101010101010---3-3-3-3--
E- 8-- 8--5--5--1--1--3--3--|- 8 8 8 8 8 8 8 8---1-1-1-1--

Bridge
E--------------------------------------------------
B--------------------------------------------------
G-66666666----------88888888-------------88888888--
D-66666666-66666666-88888888-------------88888888--
A-44444444-66666666-66666666-------------66666666--
E----------44444444--------------------------------

Riff 4
E--------------------------------------
B--------------------------------------
G--------------------------------------
D-1111111111111111-88888888------------
A-1111111111111111-88888888------------
E- 9 9 9 9 9 9 9 9-66666666------------
   . . . . . . . . ........

Riff 5
E------------------------------------
B------------------------------------
G------------------------------------
D-1111111111111111-66666666-88888888-
A-1111111111111111-66666666-88888888-
E- 9 9 9 9 9 9 9 9-44444444-66666666-
     . . . .   . .  .... ..  .... ..

Riff 6
E----------------------------
B----------------------------
G----------------------------
D-11--11--8--8--4--4--6--6---
A-11--11--8--8--4--4--6--6---
E- 9-- 9--6--6--2--2--4--4---

Order:
Riff 1      2x
Riff 2      2x
Riff C      1x
Chorus      1x
Riff B      2x
Riff C      1x
Chorus      1x
Bridge      1x
Riff B      2x
Riff C      1x
Chorus      1x
Riff D
Riff E
Riff F
Riff D
            
Submit corrections

↑ Back to top | Tablatures and chords for acoustic guitar and electric guitar, ukulele, drums are parodies/interpretations of the original songs. You may use it for private study, scholarship, research or language learning purposes only