Home » M » Mindless Self Indulgence »

Mindless Self Indulgence - Shut Me Up Tabs

Artists:  A B C D E F G H I J K L M N O P Q R S T U V W X Y Z # 

Shut Me Up Tabs

(ver. 2) Click to play this song!
Mindless Self Indulgence
 Rating:
4/5 (4 votes)
                (Intro)
-----------------------------------------------------
-----------------------------------------------------
-----------------------------------------------------
-----------------------------------------------------
-5-5-5-5-5h7--8-8-8-8-8p7--8-8-8-8-8p7--4-4-4-4-4h5--
-5-5-5-5-5h7--8-8-8-8-8p7--8-8-8-8-8p7--4-4-4-4-4h5--


-----------------------------------------------------
-----------------------------------------------------
-----------------------------------------------------
-----------------------------------------------------
-5-5-5-5-5h7--8-8-8-8-8p7--8-8-8-8-8p7--4-5----------
-5-5-5-5-5h7--8-8-8-8-8p7--8-8-8-8-8p7--4-5----------
            
Submit corrections

↑ Back to top | Tablatures and chords for acoustic guitar and electric guitar, ukulele, drums are parodies/interpretations of the original songs. You may use it for private study, scholarship, research or language learning purposes only