» » »

Mindless Self Indulgence - Never Wanted To Dance Tabs

Artists:  A B C D E F G H I J K L M N O P Q R S T U V W X Y Z # 

Never Wanted To Dance Tabs

(ver. 1) Click to play this song!
Mindless Self Indulgence
 Rating:
4.8/5 (30 votes)

 Never Wanted To Dance lessons Tabs too difficult? Try these video lessons and learn fast
 
                
I tabbed the song out completely in order. I'm pretty damn sure this is 100% correct. 
rate if you found this tab useful.

/=slide

e-----------------------------|
b-----------------------------|
g--------222222-777777-444444-| (x2)
d-444444-222222-777777-444444-|
a-444444-000000-555555-222222-|
E-222222----------------------|

e----------------------|
b----------------------|
g--------222222-777777-|
d-444444-222222-777777-|
a-444444-000000-555555-|
E-222222---------------|

e----------------------------|
b----------------------------|
g--------222222-777777777777-| (x2)
d-444444-222222-777777777777-|
a-444444-000000-555555555555-|
E-222222---------------------|

e-----------------------|
b-----------------------|
g--------222222-7-7-4-4-|
d-444444-222222-7-7-4-4-|
a-444444-000000-5-5-2-2-|
E-222222----------------|

e-----------------------------------|
b-----------------------------------|
g-1111-1111-1111-9-777-77-1010-1010-| (x3)
d-1111-1111-1111-9-777-77-1010-1010-|
a-9-9--9-9--9-9--7-555-55-8-8--8-8--|
E-----------------------------------|

e------------------------------------|
b------------------------------------|
g------------------------------------| (x3)
d-4444--7--4--4444--7--4--4444--7--4-|
a-4444-/7-/4--4444-/7-/4--4444-/7-/4-|
E-2222--5--2--2222--5--2--2222--5--2-|

e-----------------------------|
b-----------------------------|
g--------222222-777777-444444-| (x2)
d-444444-222222-777777-444444-|
a-444444-000000-555555-222222-|
E-222222----------------------|

e----------------------|
b----------------------|
g--------222222-777777-|
d-444444-222222-777777-|
a-444444-000000-555555-|
E-222222---------------|

e----------------------------|
b----------------------------|
g--------222222-777777777777-| (x2)
d-444444-222222-777777777777-|
a-444444-000000-555555555555-|
E-222222---------------------|

e-----------------------|
b-----------------------|
g--------222222-7-7-4-4-|
d-444444-222222-7-7-4-4-|
a-444444-000000-5-5-2-2-|
E-222222----------------|

e-----------------------------------|
b-----------------------------------|
g-1111-1111-1111-9-777-77-1010-1010-| (x3)
d-1111-1111-1111-9-777-77-1010-1010-|
a-9-9--9-9--9-9--7-555-55-8-8--8-8--|
E-----------------------------------|

e------------------------------------|
b------------------------------------|
g------------------------------------| (x3)
d-4444--7--4--4444--7--4--4444--7--4-|
a-4444-/7-/4--4444-/7-/4--4444-/7-/4-|
E-2222--5--2--2222--5--2--2222--5--2-|

e-----------------------------|
b-----------------------------|
g--------222222-777777-444444-| (x2)
d-444444-222222-777777-444444-|
a-444444-000000-555555-222222-|
E-222222----------------------|

e-------------------------|
b-------------------------|
g-------------77----------| (x2)
d-44----------77----------|
a-44-----0000-55-555-2222-|
E-22-222------------------|

e---------------|
b---------------|
g-------------7-|
d-44----------7-|
a-44-----0000-5-|
E-22-222--------|

e----------------------------|
b----------------------------|
g--------222222-777777777777-| (x2)
d-444444-222222-777777777777-|
a-444444-000000-555555555555-|
E-222222---------------------|

e-----------------------|
b-----------------------|
g--------222222-7-7-4-4-|
d-444444-222222-7-7-4-4-|
a-444444-000000-5-5-2-2-|
E-222222----------------|

e-----------------------------------|
b-----------------------------------|
g-1111-1111-1111-9-777-77-1010-1010-| (x2)
d-1111-1111-1111-9-777-77-1010-1010-|
a-9-9--9-9--9-9--7-555-55-8-8--8-8--|
E-----------------------------------|

e------
b-1010-
g-1010-
d-1010-
a-8-8--|
E------|
            
Submit corrections


        Never Wanted To Dance lessons Hard to play? Try these video lessons and learn fast Never Wanted To Dance lessons
        
↑ Back to top | Tablatures and chords for acoustic guitar and electric guitar, ukulele, drums are parodies/interpretations of the original songs. You may use it for private study, scholarship, research or language learning purposes only