» » »

Mindless Self Indulgence - Lights Out Bass

Artists:  A B C D E F G H I J K L M N O P Q R S T U V W X Y Z # 

Lights Out Bass

(ver. 1) Click to play this song!
Mindless Self Indulgence
 Rating:
4/5 (4 votes)

 Lights Out lessons Tabs too difficult? Try these video lessons and learn fast
 
                -------------------------------------------------------------------------------
-------------------------------------------------------------------------------


Tuning: Drop D

Intro (Bass Solo)
G|------------------------------------------------------------------|
D|------------------------------------------------------------------|
A|-2-2222-1-0-0000003-333333----------2-2222-1-0-0000003-333333-----|
D|---------------------------4-444444---------------------------4---|

Verse (Play Twice)
G|---------------------------------------------------------------|
D|---------------------------------------------------------------|
A|-2-22-24-5-55-5--9--9-10--9-10---2-22-24-5-55-5----------------| 
D|------------------------------------------------5-4-44-44-44---| 

Chorus x3           End of Chorus
G|--------------|  G|---------------------------------|
D|--------------|  D|---------------------------------|
A|----2--1------|  A|----2---2-2-2-2-1-1-1-1----------|
D|-2--------4---|  D|-2-------------------------------|

Post Chorus
G|--------------|
D|-----5---4----|
A|--------------|
D|-4------------|

Play Verse Again

Play Chorus Again

Bridge
G|------------------------------------|
D|------------------------------------|
A|-------------------2-2--------------|
D|-2----4-4-4-4-2--------4-4----------|

Interlude (Rest at the Beginning then after the drums come in play this in half notes)
G|-------------------------------|
D|-------------------------------|
A|-2---0---3---------------------|
D|-------------4-----------------|

Rest for the rest of the interlude after the effects (1:53-2:08)

Play chorus again

Play bridge again

End.
            
Submit corrections


        Lights Out lessons Hard to play? Try these video lessons and learn fast Lights Out lessons
        
↑ Back to top | Tablatures and chords for acoustic guitar and electric guitar, ukulele, drums are parodies/interpretations of the original songs. You may use it for private study, scholarship, research or language learning purposes only